Song name
# A B C D E F G H I J K L M N O P Q R S T U V W X Y Z

Lostprophets - Cant Catch Tomorrow Good Shoes Wont Save You This Time tab

Help us improve GuitareTab! Take a short survey!
Hey thought i would put the tab for one of the catchiest songs on Liberation 
up took me a while to get some of the bits right, cheers to the mates who gave me a bit of help, 
you all like it, song is in drop D. enjoy....


INTRO-

guitar 1= plays this riff throughout whole of intro

bar 1                            bar 2 (repeat 7 times)
e|------------------------------|----------------------------|
B|-----------17------------15---|-----15----17------------15-|
G|---------------16-------------|---------------16-----------|
D|--14--14------------14--------|-------------------14-------|
A|------------------------------|----------------------------|
D|------------------------------|----------------------------|

guitar 2= MAIN RIFF after guitar 1 has played bar 2 of intro seven times this riff comes in.

beginning
e|------------------------------|----------------------------|
B|------------------------------|----------------------------|
G|------------------------------|------------------------2---|
D|--2-2--2-2-2-2--2-2--2-2-2-2--|--2-2--2-2-2-2-2--4--5--2---|
A|--2-2--2-2-2-2--2-2--2-2-2-2--|--2-2--2-2-2-2-2--4--5--0---|
D|--2-2--2-2-2-2--2-2--2-2-2-2--|--2-2--2-2-2-2-2--4--5------|

e|------------------------------|---------------------------|
B|------------------------------|---------------------------|
G|--5-5--5-5-5-5--5-5--5-5-5-5--|--2-2--2-2-2-2-2-----------| repeat from
D|--5-5--5-5-5-5--5-5--5-5-5-5--|--2-2--2-2-2-2-2-----------| beginning.
A|--3-3--3-3-3-3--3-3--3-3-3-3--|--0-0--0-0-0-0-0--------5--|
D|------------------------------|------------------5--4--5--|

VERSE -

Guitar 1=

e|--0-----------------|------------------|------------------|
B|--0-----------------|------------------|--7--8--7---------|
G|--0-----------------|------------------|--7-----7---------|
D|--2-----------------|------------------|--7--9--7---------|
A|--2-----------------|------------------|--7-----7---------|
D|--2-----------------|------------------|------------------|

e|--------------------|-------12---------|------------------|
B|--------------------|--12---12---------|------------------|
G|--------------------|--12---12---------|------------------|
D|--------------------|--14--------------|------------------|
A|--------------------|------------------|------------------|
D|--------------------|------------------|------------------|

e|--------------------|------------------|
B|--8---7-------------|------------------|
G|--7---7-------------|------------------|
D|--9---7-------------|------------------|
A|--7---7-------------|------------------|
D|--------------------|------------------|


Guitar 2 =

e|---7---7---7---7----|---7---7---7---7--|---7---7---7---7--|
B|---8---8---8---8----|---8---8---8---8--|---8---8---8---8--|
G|---9---9---9---9----|---9---9---9---9--|---9---9---9---9--|
D|--------------------|------------------|------------------|
A|--------------------|------------------|------------------|
D|--------------------|------------------|------------------|

e|---7---7---7---7----|---7---7---7---7--|---7---7---7---7--|
B|---8---8---8---8----|---8---8---8---8--|---8---8---8---8--|
G|---9---9---9---9----|---9---9---9---9--|---9---9---9---9--|
D|--------------------|------------------|------------------|
A|--------------------|------------------|------------------|
D|--------------------|------------------|------------------|

e|---7---7---7---7----|---7---7---7---7--|
B|---8---8---8---8----|---8---8---8---8--|
G|---9---9---9---9----|---9---9---9---9--|
D|--------------------|------------------|
A|--------------------|------------------|
D|--------------------|------------------|


PRE-CHORUS -

Guitar 1=

e|-7-----7-------7-------7-------10--|--------10-------10------10-------7-|
B|---8-------8-------8-------8-------|----8--------8-------8-------8------|
G|-----9-------9-------9-------9-----|------9--------9-------9-------9----|
D|-----------------------------------|------------------------------------|
A|-----------------------------------|------------------------------------|
D|-----------------------------------|------------------------------------|

e|-7-----7-------7---8---7-------7--|--------------------------------------|
B|---8-------8---------7----8-------|--------------------------------------|
G|-----7-------7---------------7----|--------------------------------------|
D|----------------------------------|--------------------------------------|
A|----------------------------------|-7/9-9-9-9-9-7/9-9-9-9-9-7/9-9-9-9-9--|
D|----------------------------------|-----------------------------------12\|

Guitar 2=

e|----------------------------------|-----------------------------------|
B|----------------------------------|-----------------------------------|
G|-5---5---5-5-5-5-5---5---5-5-5-5--|-2---2----2-2-2-2-2---2---2---4----|
D|-5---5---5-5-5-5-5---5---5-5-5-5--|-2---2----2-2-2-2-2---2---2---4----|
A|-3---3---3-3-3-3-3---3---3-3-3-3--|-0---0----0-0-0-0-0---0---0---2----|
D|----------------------------------|-----------------------------------|

e|----------------------------------|-------------------------------------|
B|----------------------------------|-------------------------------------|
G|----------------------------------|---------------------2---2---4---4---|
D|-2---2---2-2-2-2-2---2---2-2-2-2--|--4----4-----4---4---2---2---4---4---|
A|-2---2---2-2-2-2-2---2---2-2-2-2--|--4----4-----4---4---0---0---2---2---|
D|-2---2---2-2-2-2-2---2---2-2-2-2--|--4----4-----4---4-------------------|


CHORUS -

Guitars 1 and 2 =

e|--------------------------------|-------------------------------|
B|--------------------------------|-------------------------------|
G|--5--5--5-5-5-5-----------------|--7--7--7-7-7-7-9--9--7--7-----|
D|--5--5--5-5-5-5-5--5--5-5-5-5---|--7--7--7-7-7-7-9--9--7--7-----|
A|--3--3--3-3-3-3-5--5--5-5-5-5---|--5--5--5-5-5-5-7--7--5--5-----|
D|----------------5--5--5-5-5-5---|-------------------------------|

e|--------------------------------|-------------------------------|
B|--------------------------------|-------------------------------|
G|--5--5--5-5-5-5-----------------|--7--7--7-7-7-7-9--9--11--11---|
D|--5--5--5-5-5-5-5--5--5-5-5-5---|--7--7--7-7-7-7-9--9--11--11---|  repeat
A|--3--3--3-3-3-3-5--5--5-5-5-5---|--5--5--5-5-5-5-7--7--9---9----|
D|----------------5--5--5-5-5-5---|-------------------------------|


SOLO -

Guitar 1= carries on playing chorus throughout the solo

Guitar 2=

e|--------------------------------|--------------------------|--------------|
B|--------------------------------|--------------------------|--------------|
G|--9----------9/12----12-/-14-x--|-/9---------/12\11\7\4/7--|-/9-------/12-|
D|--------------------------------|--------------------------|--------------|
A|--------------------------------|--------------------------|--------------|
D|--------------------------------|--------------------------|--------------|

e|--------------------------------|
B|--------------------------------|
G|----------12/14-------14/16-----|
D|--------------------------------|
A|--------------------------------|
D|--------------------------------|


BREAKDOWN BIT -

Guitar 1 or Guitar 2 (possibly both) =

e|------------------------------|---------------------------7\-------|
B|---8-------7-------8----------|---8-------7-------7-------8\-------|
G|---7-------7-------7----------|---7-------7-------8----------------|
D|---9-------7-------9----------|---9-------7-------9----------------|
A|---7--------------------------|---7--------------------------------|
D|------------------------------|------------------------------------|


OUTRO -

Guitar 1 plays =

e|--------------------------------------------------|
B|---15--15--17---------15-----15---17--------15----|
G|---------------16---------------------16----------| repeat 4 times
D|-------------------14--------------------14-------|
A|--------------------------------------------------|
D|--------------------------------------------------|

e|--------------------------------------------------|
B|---15--17------------17-17-17-17-17-17-17-\-------|
G|-----------16--------16-16-16-16-16-16-16-\-------|
D|--------------14-----14-14-14-14-14-14-14-\-------|
A|--------------------------------------------------|
D|--------------------------------------------------|

ORDER =

intro Guitar 1 - bar one once, bar 2 seven times
      Guitar 2 - play the whole riff twice.

Verse 1 Guitar 1 - play verse tabs repeated once
        Guitar 2 - play verse tabs repeated once

Pre-chorus Guitar 1 - play pre-chorus once
           Guitar 2 - play pre-chorus once

Chorus Guitar 1 and 2 - both play the chorus tabs repeat once

Verse 2 Guitar 1 - play exactly same in first verse repeated once
        Guitar 2 - play exactly same in first verse repeated once

Pre-chorus Guitar 1 and 2 - play the pre-chorus again

Chorus Guitar 1 and 2 - play the chorus again repeat once

Solo Guitar 1 - play solo riff
     Guitar 2 - play chorus riff again

Breakdown Guitar 1 and 2 - can both play it, or only one if you want

Chorus Guitar 1 and 2 - play the chorus repeated 5 times (if i counted right)

Outro Guitar 1 and / or 2 - play the outro repeating the 2nd bar 3 times, then going 
the last bar.
Related for Cant Catch Tomorrow Good Shoes Wont Save You This Time tab