Song name
# A B C D E F G H I J K L M N O P Q R S T U V W X Y Z

Lostprophets - For All These Times Son For All These Times tab

LostProphets
For All These Times Son,For All These Times
Tabbed By Charlie Stephens (digburyme666@hotmail.com)
Any comments to email adress above.
Tuning:Dropped D
Intro/Outro
Guitar 1
E|-------2-2------2-2----------------2-2--------2-2-|repeat till intro ends
B|--------------------------------------------------|
G|-4p3-------4p3-------4p3------4p3-------4p3-------|
D|-----6---------6---------6p4------6---------6-----|
A|--------------------------------------------------|
D|--------------------------------------------------|
Guitar 2
E|----------------------------------|x2
B|----------------------------------|
G|----------------------------------|
D|-66666666-2222222-4444444-6666666-|
A|-66666666-2222222-4444444-6666666-|
D|-66666666-2222222-4444444-6666666-|
Verse
Guitar 1
E|---------------|X8
B|---1212-1111---|
G|---1313-1313---|
D|---------------| 
A|---------------|
D|---------------|

Guitar 2
E|-------------------------------------------------------------|X2
B|-------------------------------------------------------------|
G|-------------------------------------------------------------|
D|-66-66-66666666-22-22-22222222-99-99-99999999-44-44-44444444-|
A|-66-66-66666666-22-22-22222222-99-99-99999999-44-44-44444444-|
D|-66-66-66666666-22-22-22222222-99-99-99999999-44-44-44444444-|
Pre Chorus
Guitar 1
E|------------------------------------------|
B|---1111--1111--111111111111-1111--1111----|
G|---1313--1313--131313131313-1313--1313----|
D|------------------------------------------|
A|------------------------------------------|
D|------------------------------------------|
Guitar 2
E|------------------------------|
B|------------------------------|
G|------------------------------|
D|66-66-66666666-66-66-66666666-|
A|66-66-66666666-66-66-66666666-|
D|66-66-66666666-66-66-66666666-|
Chorus
Guitar 1/Guitar 2
E|-------------------------------------|X2
B|-------------------------------------|
G|-------------------------------------|
D|99999999-222222222-66666666-44444444-|
A|99999999-222222222-66666666-44444444-|
D|99999999-222222222-66666666-44444444-|
Post Chorus
Guitar 1 Only
E|------2-2-------2-2--------|
B|---------------------------|
G|4p3-------4p3-------4p3----|
D|----6---------6---------6--|
A|---------------------------|
D|---------------------------|
Verse
Pre Chorus
Chorus
Post Chorus
Bridge
Guitar 1
E|------------------------------------------|X8
B|---121212-111111-121212-111111-1212-1111--|
G|---131313-131313-131313-131313-1313-1313--|
D|------------------------------------------|
A|------------------------------------------|
D|------------------------------------------|
Guitar 2
E|--------------------------------------------------------------------|X2
B|--------------------------------------------------------------------|
G|--------------------------------------------------------------------| 
D|6666666666666666-2222222222222222-4444444444444444-6666666666666666-|
A|6666666666666666-2222222222222222-4444444444444444-6666666666666666-|
D|6666666666666666-2222222222222222-4444444444444444-6666666666666666-|
Pre chorus(No Guitars Play)
Chorus
Bridge
Outro
Tap to rate this tab
# A B C D E F G H I J K L M N O P Q R S T U V W X Y Z