Song name
# A B C D E F G H I J K L M N O P Q R S T U V W X Y Z

Lostprophets - Heaven For The Weather Hell For The Company tab

Artist: Lostprophets
Song: Heaven For The Weather, Hell For The Company
Album: Liberation Transmission

v = vibrato
s = slide
h = hammer-on

Standard Tuning (EADGBe)

Intro:

e|-----6------------------------6---------------------|
B|--------6--7-----------6-6-------6--9----------6-6--|
G|--8--------------6-6-6-----8-------------6-6-6------|
D|--------------8------------------------8------------|   x2
A|----------------------------------------------------|
E|----------------------------------------------------|

Verse (Part 1):

e|----------------------------------------------------------------------|
B|----------------------------------------------------------------------|
G|----------------------------------------------------------------------|
D|--8-8---4-6-6-4-4--6-6---4-6-6-4-4--8-8---4-6-6-4-4--6-6---4-6-6-4-4--|  x2
A|--8-8--------------6-6--------------8-8--------------6-6--------------|
E|--6-6--------------4-4--------------6-6--------------4-4--------------|

Verse (Part 2):

Ok, this is played during the second verse. (From 1:43 to 1:56)

Listen carefully to the song.. these notes are tricky >.<

e|-----------------------------------------------------------------------|
B|-----6------11-------9-11----9--11---6---------11-------9-11----9--11--|
G|--8---------------8-------8-----------------8--------8-------8---------|
D|-----------------------------------------------------------------------|
A|-----------------------------------------------------------------------|
E|-----------------------------------------------------------------------|

Pre-Chorus:

e|-----------------------------------------------------------------------------------|
B|-----------------------------------------------------------------------------------|
G|-----------------------------------------------------------------------------------|
D|--13-13-13-13-13-13-13-13-9-9-9-9-9-9-9-9-8-8-8-8-8-8-8-8-12-12-12-12-12-12-12-12--|  x2
A|--13-13-13-13-13-13-13-13-9-9-9-9-9-9-9-9-8-8-8-8-8-8-8-8-12-12-12-12-12-12-12-12--|
E|--11-11-11-11-11-11-11-11-7-7-7-7-7-7-7-7-6-6-6-6-6-6-6-6-10-10-10-10-10-10-10-10--|

Chorus:

e|-------------------------------------|
B|-------------------------------------|
G|-------------------------------------|
D|--8-8--8---8-8--8---6-6--6---6-6--6--|
A|--8-8--8---8-8--8---6-6--6---6-6--6--|
E|--6-6--6---6-6--6---4-4--4---4-4--4--|

e|-------------------------------------------------------------------|
B|-------------------------------------------------------------------|
G|-------------------------------------------------------------------|
D|--4-4-4-4-4-4-4-4-4-4-4-4-4-4-4-4-6-6-6-6-6-6-6-6-6-6-6-6-6-6-6-6--|
A|--4-4-4-4-4-4-4-4-4-4-4-4-4-4-4-4-6-6-6-6-6-6-6-6-6-6-6-6-6-6-6-6--|
E|--2-2-2-2-2-2-2-2-2-2-2-2-2-2-2-2-4-4-4-4-4-4-4-4-4-4-4-4-4-4-4-4--|

e|-------------------------------------------------------------------|
B|-------------------------------------------------------------------|
G|-------------------------------------------------------------------|
D|--8-8-8-8-8-8-8-8-8-8-8-8-8-8-8-8-6-6-6-6-6-6-6-6-6-6-6-6-6-6-6-6--|
A|--8-8-8-8-8-8-8-8-8-8-8-8-8-8-8-8-6-6-6-6-6-6-6-6-6-6-6-6-6-6-6-6--|
E|--6-6-6-6-6-6-6-6-6-6-6-6-6-6-6-6-4-4-4-4-4-4-4-4-4-4-4-4-4-4-4-4--|

e|-------------------------------------------------------------------|
B|-------------------------------------------------------------------|
G|-------------------------------------------------------------------|
D|--4-4-4-4-4-4-4-4-4-4-4-4-4-4-4-4-6-6-6-6-6-6-6-6-6-6-6-6-6-6-6-6--|
A|--4-4-4-4-4-4-4-4-4-4-4-4-4-4-4-4-6-6-6-6-6-6-6-6-6-6-6-6-6-6-6-6--|
E|--2-2-2-2-2-2-2-2-2-2-2-2-2-2-2-2-4-4-4-4-4-4-4-4-4-4-4-4-4-4-4-4--|

Solo:

e|---------------------------------------------------------------------|
B|---------------------------------------------------------------------|
G|---------------------------------------------------------------------|
D|--6h8--8-8-8-6-8-6h8--8-8-8-8-6-8-6h8--8-8-8-8-6-8-6h8--8-8-8-8-6-8--|
A|---------------------------------------------------------------------|
E|---------------------------------------------------------------------|

e|------------------------------------------------------------|
B|------------------------------------------------------------|
G|------6------6-----6-----6-----6s8-6---6-----6s8-6---6------|
D|--6-8----8-6---8-6---8-6---8-6-------8---8-6-------8---8-6--|
A|------------------------------------------------------------|
E|------------------------------------------------------------|

e|---------------------------------------------------|
B|---------------------------------------------------|
G|--8-6---6-----------6-----8-6---6-----------6------|
D|------8---8-6-8-6-8---8-6-----8---8-6-8-6-8---8-6--|
A|---------------------------------------------------|
E|---------------------------------------------------|

(I'm not sure where the notes slide from, but it's not that important :)

e|----------------------------------------------|
B|----------------------------------------------|
G|--6s8-6----s10--8----s13--8----s15--8---s15v--|
D|--------8---------6---------6---------6-------|
A|----------------------------------------------|
E|----------------------------------------------|

Then, play Chorus..

And then..

Outro: (At 3:33)

One guitar plays the Chorus here while the other one plays this.

e|--13--11--9-13--11--9-13--11--9-13-11-11-9--|
B|--------------------------------------------|
G|--------------------------------------------|
D|--------------------------------------------|
A|--------------------------------------------|
E|--------------------------------------------|

e|--11-13-11-9-11-13-11-13-11-9-11-13-11-13-11-9--|
B|------------------------------------------------|
G|------------------------------------------------|
D|------------------------------------------------|
A|------------------------------------------------|
E|------------------------------------------------|

e|--16-11-11-9-16-11-11-9-16-11-11-9-16-11-11-9--|
B|-----------------------------------------------|
G|-----------------------------------------------|
D|-----------------------------------------------|
A|-----------------------------------------------|
E|-----------------------------------------------|

e|--16--11--9-16--11--9-16--11--9-16--11--9--16--|
B|-----------------------------------------------|
G|-----------------------------------------------|
D|-----------------------------------------------|
A|-----------------------------------------------|
E|-----------------------------------------------|

Ends on:

e|-----
B|-----
G|-----
D|--8--
A|--8--
E|--6--

And that's it, like 90% correct if you ask me :D
Tap to rate this tab
# A B C D E F G H I J K L M N O P Q R S T U V W X Y Z