Song name
# A B C D E F G H I J K L M N O P Q R S T U V W X Y Z

Lostprophets - Everybodys Screaming tab

Lostprophets - Everybodys Screaming

Intro/Verse/Chorus

Guitar 1

|------------------------------------------------------------------------------------------|
|----5-5-x-x-4-4-x-x-5-5-x-x-4-4-x-x-----12-12-12-12-12-12-12-12-11-11-11-11-14-14-14-14---|
|----6-6-x-x-6-6-x-x-6-6-x-x-6-6-x-x-----13-13-13-13-13-13-13-13-13-13-13-13-13-13-13-13---|     
|------------------------------------------------------------------------------------------|
|------------------------------------------------------------------------------------------|
|------------------------------------------------------------------------------------------|
  
Everybodys Screaming, we're only bleeding, Woah       Woah      Woah


2nd Guitar (Comes in on 3rd time)

|-----------------------------------------------------------------------------|
|-----------------------------------------------------------------------------|
|--6--6--6--6--6--6--6--6--13-13-13-13-13-13-13-13-13-13-16-16-15-15-13-13----|
|--x--x--x--x--x--x--x--x---x--x--x--x--x--x--x--x--x--x--x--x--x--x--x--x----|
|--4--4--4--4--4--4--4--4--11-11-11-11-11-11-11-11-11-11-14-14-13-13-11-11----|
|-----------------------------------------------------------------------------|

Pre-Chorus

|-------------------------------------------------------------------------------------------------------|
|-5-5-5-5-5-5-5-5-4-4-4-4-4-4-4-4-5-5-5-5-5-5-5-5-4-4-4-4-4-4-4-4-2-2-2-2-2-2-2-2-4-4-4-4-4-4-4-4-------|
|-6-6-6-6-6-6-6-6-4-4-4-4-4-4-4-4-6-6-6-6-6-6-6-6-4-4-4-4-4-4-4-4-2-2-2-2-2-2-2-2-4-4-4-4-4-4-4-4-4-----|
|-6-6-6-6-6-6-6-6-4-4-4-4-4-4-4-4-6-6-6-6-6-6-6-6-4-4-4-4-4-4-4-4-2-2-2-2-2-2-2-2-4-4-4-4-4-4-4-4-6-----|
|-------------------------------------------------------------------------------------------------6-----|
|-------------------------------------------------------------------------------------------------6-----|

Chorus

Pre-Chorus

Verse 2

Guitar 2 slight variation

|---------------------------------------------------------------------------------------------|
|---------------------------------------------------------------------------------------------|
|--6-6-6-6-6-6-6-6/13-13-13-13-13-13-13-13-13-13-13-13-13-13-13-13-13-13-16-16-15-15-13-13----|
|--x-x-x-x-x-x-x-x--x--x--x--x--x--x--x--x--x--x--x--x--x--x--x--x--x--x--x--x--x--x--x--x----|
|--4-4-4-4-4-4-4-4/11-11-11-11-11-11-11-11-11-11-11-11-11-11-11-11-11-11-14-14-13-13-11-11----|
|---------------------------------------------------------------------------------------------|

Pre-Chorus

Chrous

Pre-Chorus

Solo

(sorry don't know yet, to hard to hear)

After Solo

|---------------------------------------------------------------------------------------------------------------------------------|
|---------------------------------------------------------------------------------------------------------------------------------|
|-6-6-6-6-6-6-6-6-4-4-4-4-4-4-4-4-6-6-6-6-6-6-6-6-4-4-4-4-4-4-4-4-8-8-8-8-8-8-8-8-6-6-6-6-6-6-6-6-9-9-9-9-9-9-9-9-11--13--16--18--|
|---------------------------------------------------------------------------------------------------------------------------------|
|-4-4-4-4-4-4-4-4-2-2-2-2-2-2-2-2-4-4-4-4-4-4-4-4-2-2-2-2-2-2-2-2-6-6-6-6-6-6-6-6-4-4-4-4-4-4-4-4-7-7-7-7-7-7-7-7-9---11--14--16--|
|---------------------------------------------------------------------------------------------------------------------------------|

Everybodys Screaming

|------------------------------------------------------------------------------------------|
|----5-5-x-x-4-4-x-x-5-5-x-x-4-4-x-x-----12-12-12-12-12-12-12-12-11-11-11-11-14-14-14-14---|
|----6-6-x-x-6-6-x-x-6-6-x-x-6-6-x-x-----13-13-13-13-13-13-13-13-13-13-13-13-13-13-13-13---|     
|------------------------------------------------------------------------------------------|
|------------------------------------------------------------------------------------------|
|------------------------------------------------------------------------------------------|



Repeat working on other parts just a start for people

Tap to rate this tab
# A B C D E F G H I J K L M N O P Q R S T U V W X Y Z