Song name
# A B C D E F G H I J K L M N O P Q R S T U V W X Y Z

Lostprophets - A Town Called Hypocrisy tab

-------------------------------------------------------------------------------
			     A TOWN CALLED HYPOCRISY - Lostprophets
-------------------------------------------------------------------------------
Tabbed by: TimEastonRules
Email: matt_lippert2010@yahoo.com

Tuning: Standard

Intro
Guitar I
e|--------------------------------------------------------------------------|
B|--------------------------------------------------------------------------|
G|---------666-----------------------666------------------------------------|
D|-------------8------888----------------8------8-6----6--------------------|
A|---------------6-88----------------------6-88------8----8-----------------|
E|--4-6-6---------------------4-6-6-----------------------------------------|

e|--------------------------------------------------------------------------|
B|--------------------------------------------------------------------------|
G|---------666------------------------------666----------8/10\8-6-----------|
D|--------------8-------x-888--------------------8--------------------------|
A|----------------6-88-----------------------------6-88---------------------|
E|--4-6-6----------------------------4-6-6----------------------------------| x2

Guitar II
e|--------44----------44----------44----------------------------------------|
B|-----22----22----22----22----22----22----22-44-22-------------------------|
G|--33----------33----------33----------33----------------------------------|
D|--------------------------------------------------------------------------|
A|--------------------------------------------------------------------------|
E|--------------------------------------------------------------------------|

e|--------44----------44----------44----------------------------------------|
B|-----22----22----22----22----22----22----22-6-4-2-------------------------|
G|--33----------33----------33----------33----------------------------------|
D|--------------------------------------------------------------------------|
A|--------------------------------------------------------------------------|
E|--------------------------------------------------------------------------|

Verse
Guitar I
e|--------------------------------------------------------------------------|
B|--------------------------------------------------------------------------|
G|--------------------------------------------------------------------------|
D|--------------------------------------------------------------------------|
A|--------------------------------------------------------------------------|
E|--------------------------------------------------------------------------|

Guitar II
e|--------44-11-------44-11---------------------44-11-11111/44-1------------|
B|-----22----------22------------------------22-----------------------------|
G|--33-----------3------------------------33--------------------------------|
D|--------------------------------------------------------------------------|
A|--------------------------------------------------------------------------|
E|--------------------------------------------------------------------------|
x2

Chorus
Guitar I
e|--------------------------------------------------------------------------|
B|--------------------------------------------------------------------------|
G|--------------------------------------------------------------------------|
D|--8--8--8-----66--6-----3--3--3-----44--4/6-------------------------------|
A|--8--8--8-----66--6-----3--3--3-----44--4/6-------------------------------|
E|--6--6--6-----44--4-----1--1--1-----22--2/4-------------------------------|
x2

Solo (w/ distortion)
e|--------------------------------------------------------------------------|
B|--------------------------------------------------------------------------|
G|--------------------------------------------------------------------------|
D|--8-8-8b---6---6---10-10-10b-68--68-8b-8-6-8------------------------------|
A|-------------8---------------------------------8-11-6---------------------|
E|--------------------------------------------------------------------------|

e|--------------------------------------------------------------------------|
B|--------------------------------------------------------------------------|
G|-------------------------------------------1515\--------------------------|
D|--8-6-8-10-8-10-11-10-11-13-11-13-15-13-15--------------------------------|
A|--------------------------------------------------------------------------|
E|--------------------------------------------------------------------------|

i gotta head out but you can prolly figure the layout of the song pretty easy.  happy playing

| /  slide up
| \  slide down
| h  hammer-on
| p  pull-off
| ~  vibrato
| +  harmonic
| x  Mute note
===============================================================================
Tap to rate this tab
 
# A B C D E F G H I J K L M N O P Q R S T U V W X Y Z