Song name
# A B C D E F G H I J K L M N O P Q R S T U V W X Y Z

Lostprophets - Burn Burn Acoustic tab

---------------------------------------------------
           Lostprophets - Burn Burn
---------------------------------------------------
Acoustic Version
Played Live on 99x livex show.

Tuning: drop D (Dadgbe)
tabbed by: hungryhamster (Steven W)


e|----------------------------------------|
b|----------------------------------------|
g|----2-2----------5-5--------5---5/7-x---|
d|----2-2--3-3-x---5-5--0-0---5-0-5/7-x---|
a|----0-0--3-3-x---3-3--0-0---3-0-3/5-x---|
D|---------3-3-x--------0-0-----0---------|


e|-----------------------------------------|
b|-----------------------------------------|
g|---2-2---------5-5-----------------------|
d|---2-2--3-3-x--5-5--0-0---12-0-0-12\(5)--|
a|---0-0--3-3-x--3-3--0-0---12-0-0-12\(5)--|
D|--------3-3-x-------0-0---12-0-0-12\(5)--|


e|----------------------------------------|
b|----------------------------------------|
g|----2-2----------5-5--------5---5/7-x---|
d|----2-2--3-3-x---5-5--0-0---5-0-5/7-x---|
a|----0-0--3-3-x---3-3--0-0---3-0-3/5-x---|
D|---------3-3-x--------0-0-----0---------|


e|-----------------------------------------|
b|-----------------------------------------|
g|---2-2---------5-5-----------------------|
d|---2-2--3-3-x--5-5--0-0-----x-x-x-x------|
a|---0-0--3-3-x--3-3--0-0-----x-x-x-x------|
D|--------3-3-x-------0-0-----x-x-x-x------|


e|-------------------------------------|
b|-------------------------------------|
g|---2-2----------555------------------|
d|---2-2--3-3-x---555--0-0-0-0-0-0-0---|
a|---0-0--3-3-x---333--0-0-0-0-0-0-0---|
D|--------3-3-x--------0-0-0-0-0-0-0---|
pm:                    . . . . . . .

e|----------------------------------------|
b|----------------------------------------|
g|-2-2-2-----------5-5---------5---5/7----|
d|-2-2-2--3-3-3-3--5-5--0-0-0--5-0-5/7----|
a|-0-0-0--3-3-3-3--3-3--0-0-0--3-0-3/5----|
D|--------3-3-3-3-------0-0-0----0--------|
   . . .  . . . .  . .  . . .    .

e|----------------------------------------|
b|----------------------------------------|
g|-2-2-2-----------5-5--------------------|
d|-2-2-2--3-3-3-3--5-5--0-0-0-0-0-0-0-----|
a|-0-0-0--3-3-3-3--3-3--0-0-0-0-0-0-0-----|
D|--------3-3-3-3-------0-0-0-0-0-0-0-----|
   . . .  . . . .  . .  . . . . . . .

e|-------------------------------------|
b|-------------------------------------|
g|-2-2-2-----------555-----------------|
d|-2-2-2--3-3-3-3--555--0-0-0-0-0-0-0--|
a|-0-0-0--3-3-3-3--333--0-0-0-0-0-0-0--|
D|--------3-3-3-3-------0-0-0-0-0-0-0--|
   . . .  . . . .  ...  . . . . . . .

e|-------------------------------------|
b|-------------------------------------|
g|---2-2-----------555---------5---5/7-|
d|---2-2--3-3-3-3--555--0-0-0--5-0-5/7-|
a|---0-0--3-3-3-3--333--0-0-0--3-0-3/5-|
D|--------3-3-3-3-------0-0-0----0-----|
     . .  . . . .  ...  . . .    . 

e|-------------------------------------|
b|-------------------------------------|
g|-2-2-2-----------555-----------------|
d|-2-2-2--3-3-3-3--555--0-0-0-0-0-0-0--|
a|-0-0-0--3-3-3-3--333--0-0-0-0-0-0-0--|
D|--------3-3-3-3-------0-0-0-0-0-0-0--|
   . . .  . . . .  ...  . . . . . . .

e|----------------------------------------|
b|----------------------------------------|
g|-2-2-2-----------555---------5---5/7----|
d|-2-2-2--3-3-3-3--555--0-0-0--5-0-5/7----|
a|-0-0-0--3-3-3-3--333--0-0-0--3-0-3/5----|
D|--------3-3-3-3-------0-0-0----0--------|
   . . .  . . . .  ...  . . .    .

e|----------------------------------------|
b|----------------------------------------|
g|-2-2-2-----------5-5---------5---5/7----|
d|-2-2-2--3-3-3-3--5-5--0-0-0--5-0-5/7----|
a|-0-0-0--3-3-3-3--3-3--0-0-0--3-0-3/5----|
D|--------3-3-3-3-------0-0-0----0--------|
   . . .  . . . .  . .  . . .    .

e|----------------------------------------|
b|----------------------------------------|
g|----2-2----------555--------5---5/7-x---|
d|----2-2--3-3-x---555--0-0---5-0-5/7-x---|
a|----0-0--3-3-x---333--0-0---3-0-3/5-x---|
D|---------3-3-x--------0-0-----0---------|


e|-----------------------------------------|
b|-----------------------------------------|
g|---2-2---------5-5-----------------------|
d|---2-2--3-3-x--5-5--0-0---12-0-0-12\(5)--|
a|---0-0--3-3-x--3-3--0-0---12-0-0-12\(5)--|
D|--------3-3-x-------0-0---12-0-0-12\(5)--|


e|----------------------------------------|
b|----------------------------------------|
g|----2-2----------5-5--------5---5/7-x---|
d|----2-2--3-3-x---5-5--0-0---5-0-5/7-x---|
a|----0-0--3-3-x---3-3--0-0---3-0-3/5-x---|
D|---------3-3-x--------0-0-----0---------|


e|----------------------------------------|
b|----------------------------------------|
g|---2-2---------5-5----------------------|
d|---2-2--3-3-x--5-5--0-0--0-0-0-0-0-0----|
a|---0-0--3-3-x--3-3--0-0--0-0-0-0-0-0----|
D|--------3-3-x-------0-0--0-0-0-0-0-0----|
                           . . . . . .

e|----------------------------------------|
b|----------------------------------------|
g|-2-2-2-----------5-5--------------------|
d|-2-2-2--3-3-3-3--5-5--0-0-0-0-0-0-0-----|
a|-0-0-0--3-3-3-3--3-3--0-0-0-0-0-0-0-----|
D|--------3-3-3-3-------0-0-0-0-0-0-0-----|
   . . .  . . . .  . .  . . . . . . .

e|----------------------------------------|
b|----------------------------------------|
g|-2-2-2-----------555---------5---5/7----|
d|-2-2-2--3-3-3-3--555--0-0-0--5-0-5/7----|
a|-0-0-0--3-3-3-3--333--0-0-0--3-0-3/5----|
D|--------3-3-3-3-------0-0-0----0--------|
   . . .  . . . .  ...  . . .    .

e|----------------------------------------|
b|----------------------------------------|
g|-2-2-2-----------5-5--------------------|
d|-2-2-2--3-3-3-3--5-5--0-0-0-0-0-0-0-----|
a|-0-0-0--3-3-3-3--3-3--0-0-0-0-0-0-0-----|
D|--------3-3-3-3-------0-0-0-0-0-0-0-----|
   . . .  . . . .  . .  . . . . . . .

e|----------------------------------------|
b|----------------------------------------|
g|-2-2-2-----------5-5--------------------|
d|-2-2-2--3-3-3-3--5-5--0-0-0-0-0-0-0-----|
a|-0-0-0--3-3-3-3--3-3--0-0-0-0-0-0-0-----|
D|--------3-3-3-3-------0-0-0-0-0-0-0-----|
   . . .  . . . .  . .  . . . . . . .

e|-------------------------------------|
b|-------------------------------------|
g|---2-2-----------555---------5---5/7-|
d|---2-2--3-3-3-3--555--0-0-0--5-0-5/7-|
a|---0-0--3-3-3-3--333--0-0-0--3-0-3/5-|
D|--------3-3-3-3-------0-0-0----0-----|
     . .  . . . .  ...  . . .    . 

e|----------------------------------------|
b|----------------------------------------|
g|-2-2-2-----------555--------------------|
d|-2-2-2--3-3-3-3--555--0-0-0-0-0-0-0-----|
a|-0-0-0--3-3-3-3--333--0-0-0-0-0-0-0-----|
D|--------3-3-3-3-------0-0-0-0-0-0-0-----|
   . . .  . . . .  ...  . . . . . . .

e|----------------------------------------|
b|----------------------------------------|
g|-2-2-2-----------555---------5---5/7----|
d|-2-2-2--3-3-3-3--555--0-0-0--5-0-5/7----|
a|-0-0-0--3-3-3-3--333--0-0-0--3-0-3/5----|
D|--------3-3-3-3-------0-0-0----0--------|
   . . .  . . . .  ...  . . .    .

e|----------------------------------------|
b|----------------------------------------|
g|-2-2-2-----------555---------5---5/7----|
d|-2-2-2--3-3-3-3--555--0-0-0--5-0-5/7----|
a|-0-0-0--3-3-3-3--333--0-0-0--3-0-3/5----|
D|--------3-3-3-3-------0-0-0----0--------|
   . . .  . . . .  ...  . . .    .

e|----------------------------------------|
b|----------------------------------------|
g|----2-2----------5-5--------5---5/7-x---|
d|----2-2--3-3-x---5-5--0-0---5-0-5/7-x---|
a|----0-0--3-3-x---3-3--0-0---3-0-3/5-x---|
D|---------3-3-x--------0-0-----0---------|


e|-----------------------------------------|
b|-----------------------------------------|
g|---2-2---------5-5-----------------------|
d|---2-2--3-3-x--5-5--0-0---12-0-0-12\(5)--|
a|---0-0--3-3-x--3-3--0-0---12-0-0-12\(5)--|
D|--------3-3-x-------0-0---12-0-0-12\(5)--|


e|----------------------------------------|
b|----------------------------------------|
g|----2-2----------555--------5---5/7-x---|
d|----2-2--3-3-x---555--0-0---5-0-5/7-x---|
a|----0-0--3-3-x---333--0-0---3-0-3/5-x---|
D|---------3-3-x--------0-0-----0---------|


e|----------------------------------------|
b|----------------------------------------|
g|---2-2---------5-5----------------------|
d|---2-2--3-3-x--5-5--0-0--0-0-0-0-0-0----|
a|---0-0--3-3-x--3-3--0-0--0-0-0-0-0-0----|
D|--------3-3-x-------0-0--0-0-0-0-0-0----|


e|--000-0-0---0--0-0---0--0-0---0--0-0---0-0-0--xx-|
b|--555-5-5---5--5-5---5--5-5---5--5-5---5-5-5--xx-|
g|--444-4-4---4--4-4---4--4-4---4--4-4---4-4-4--xx-|
d|--777-7-7---7--7-7---7--7-7---7--7-7---7-7-7--xx-|
a|--777-7-7---7--7-7---7--7-7---7--7-7---7-7-7--xx-|
D|-------------------------------------------------|


e|--0--0-0---0--0-0---0--0-0---0--0-0---0-0-0--xx--|
b|--1--1-1---1--1-1---1--1-1---1--1-1---1-1-1--xx--|
g|--2--2-2---2--2-2---2--2-2---2--2-2---2-2-2--xx--|
d|--3--3-3---3--3-3---3--3-3---3--3-3---3-3-3--xx--|
a|--3--3-3---3--3-3---3--3-3---3--3-3---3-3-3--xx--|
D|-------------------------------------------------|


e|-------------------------------------------------|
b|--3--3-3---3--3-3---3--3-3---3--3-3---3-3-3--xx--|
g|--2--2-2---2--2-2---2--2-2---2--2-2---2-2-2--xx--|
d|--0--0-0---0--0-0---0--0-0---0--0-0---0-0-0--xx--|
a|--0--0-0---0--0-0---0--0-0---0--0-0---0-0-0--xx--|
D|--0--0-0---0--0-0---0--0-0---0--0-0---0-0-0------|


e|--0--0-0---0--0-0---0--0-0---0--0-0---0-0-0--xx--|
b|--0--0-0---0--0-0---0--0-0---0--0-0---0-0-0--xx--|
g|--2--2-2---2--2-2---2--2-2---2--2-2---2-2-2--xx--|
d|--3--3-3---3--3-3---3--3-3---3--3-3---3-3-3--xx--|
a|--3--3-3---3--3-3---3--3-3---3--3-3---3-3-3--xx--|
D|-------------------------------------------------|


e|--0--0-0---0--0-0---0--0-0---0--0-0---0-0-0--xx-|
b|--5--5-5---5--5-5---5--5-5---5--5-5---5-5-5--xx-|
g|--4--4-4---4--4-4---4--4-4---4--4-4---4-4-4--xx-|
d|--7--7-7---7--7-7---7--7-7---7--7-7---7-7-7--xx-|
a|--7--7-7---7--7-7---7--7-7---7--7-7---7-7-7--xx-|
D|------------------------------------------------|


e|--0--0-0---0--0-0---0--0-0---0--0-0---0-0-0--xx--|
b|--1--1-1---1--1-1---1--1-1---1--1-1---1-1-1--xx--|
g|--2--2-2---2--2-2---2--2-2---2--2-2---2-2-2--xx--|
d|--3--3-3---3--3-3---3--3-3---3--3-3---3-3-3--xx--|
a|--3--3-3---3--3-3---3--3-3---3--3-3---3-3-3--xx--|
D|-------------------------------------------------|


e|-------------------------------------------------|
b|--3--3-3---3--3-3---3--3-3---3--3-3---3-3-3--xx--|
g|--2--2-2---2--2-2---2--2-2---2--2-2---2-2-2--xx--|
d|--0--0-0---0--0-0---0--0-0---0--0-0---0-0-0--xx--|
a|--0--0-0---0--0-0---0--0-0---0--0-0---0-0-0--xx--|
D|--0--0-0---0--0-0---0--0-0---0--0-0---0-0-0------|


e|--0--0-0---0--0-0---0--0-0---0--0-0---0-0-0-0/0-0--|
b|--1--1-1---1--1-1---1--1-1---1--1-1---1-1/3-3/5-5--|
g|--2--2-2---2--2-2---2--2-2---2--2-2---2-2/4-4/6-6--|
d|--3--3-3---3--3-3---3--3-3---3--3-3---3-3/5-5/7-7--|
a|--3--3-3---3--3-3---3--3-3---3--3-3---3-3/5-5/7-7--|
D|---------------------------------------------------|


e|----------------------------------------|
b|----------------------------------------|
g|----2-2----------5-5--------5---5/7-x---|
d|----2-2--3-3-x---5-5--0-0---5-0-5/7-x---|
a|----0-0--3-3-x---3-3--0-0---3-0-3/5-x---|
D|---------3-3-x--------0-0-----0---------|


e|-----------------------------------------|
b|-----------------------------------------|
g|---2-2---------5-5-----------------------|
d|---2-2--3-3-x--5-5--0-0---12-0-0-12\(5)--|
a|---0-0--3-3-x--3-3--0-0---12-0-0-12\(5)--|
D|--------3-3-x-------0-0---12-0-0-12\(5)--|


e|----------------------------------------|
b|----------------------------------------|
g|----2-2----------5-5--------5---5/7-x---|
d|----2-2--3-3-x---5-5--0-0---5-0-5/7-x---|
a|----0-0--3-3-x---3-3--0-0---3-0-3/5-x---|
D|---------3-3-x--------0-0-----0---------|


e|-----------------------------------------|
b|-----------------------------------------|
g|o---2-2---------5-5---------------------o|
d|o---2-2--3-3-x--5-5--0-0--0-0-0-0-0-0---o|x4
a|----0-0--3-3-x--3-3--0-0--0-0-0-0-0-0----|
D|---------3-3-x-------0-0--0-0-0-0-0-0----|


e|----------------------------------------------|
b|------------------------------3333333333------|
g|--2---0-------5---------------2222222222------|
d|--2---0---3---5---0-----------0000000000------|
a|--0---0---3---3---0-----------0000000000------|
D|----------3-------0-----------0000000000------|
Tap to rate this tab
# A B C D E F G H I J K L M N O P Q R S T U V W X Y Z