Song name
# A B C D E F G H I J K L M N O P Q R S T U V W X Y Z

Lostprophets - Next Stop Atrocity Live tab

Alright ive decided 2 tab dis song based on da live version due 2 da studio version isnt 
out yet soo you couldnt say its gonna be exactually how it sounds but most of it 
2 da live version is right sooo dis tab should do u guys for now lol


Listen 2 da song 2 hear da timing n stuff
Tune down 2 D

Intro/Verse

---------------------------------------------   ----------------------|
---------------------------------------------   ----------------------|
---------------------------------------------   ----------------------|
--------------------------------------------- X3----------------------| X1
----7-7-6-6-6-6------------------------------   --9-9-7-777-9-11-11---|
----7-7-6-6-6-6------------------------------   --9-9-7-777-9-11-11---|

Do da intro/ Verse Twice

Chorus ( not exact timing )

---------------------------------------------------|
---------------------------------------------------|
---------------------------------------------------|
---------------------------------------------------|
--666666666666-4444444444-222222222222-1111111111--|
--666666666666-4444444444-222222222222-1111111111--|

---------------------------------------------------|
---------------------------------------------------|
---------------------------------------------------|
---------------------------------------------------| X2
--44444444--2/4------------------------------------|
--44444444--2/4------------------------------------|

---------------------------------------------------|
---------------------------------------------------|
---------------------------------------------------|
---------------------------------------------------| X2
-22xxx4444xxx66666666666---------------------------|
-22xxx4444xxx66666666666---------------------------|

Back 2 intro/Verse

Den Chorus again

can't really work out da heavy bit

Den its da chours agian n den its done
Well dats bout all i can figure out of dis song listion 2 da live song.
Plz comment n tell me what u think of da tab
AHit Niv out lol
Tap to rate this tab
# A B C D E F G H I J K L M N O P Q R S T U V W X Y Z