Song name
# A B C D E F G H I J K L M N O P Q R S T U V W X Y Z

Lostprophets - A Town Called Hypocrisity tab

e--------------------------------   e----------------------------------------|
b--------------------------------   b----------------------------------------|
g---------6-6-6------------------   g---------6-6-6--------------------------|
d---------------8--------8-8-8---   d---------------8-------8-6---8----------|(times1)
a------------------6-8-8---------   a-----------------6-8-8-----8------------|
d---6-8-8------------------------   d---6-8-8--------------------------------|
____________________________________________________________________________

e-------------------------------   e-----------------------------------------|
b-------------------------------   b-----------------------------------------|
g--------6-6-6------------------   g---------6-6-6---------------------------|
d--------------8--------8-8-8---   d---------------8-------8-6---8-----------|(times3)
a-----------------6-8-8---------   a-----------------6-8-8-----8-------------|
d---6-6-------------------------   d---6-8-8---------------------------------|
____________________________________________________________________________
can you take this broken boy?
e-----------4-4-1---------------   e--------4-4-1---------------------------|
b-------2-2---------------------   b----2-2---------------------------------|
g---3-3-------------------------   g--3-------------------------------------|
d-------------------------------   d----------------------------------------|
a-------------------------------   a----------------------------------------|
d-------------------------------   d----------------------------------------|

and put the pieces back as one?
e---------4-4-1--1-1-1-1-1-1-1---4-4-1--------------------------------------|
b-----2-2-------------------------------------------------------------------|
g---3-----------------------------------------------------------------------|
d---------------------------------------------------------------------------|
a---------------------------------------------------------------------------|
d---------------------------------------------------------------------------|

this is my first song but i couldent finish it so if any one knows the rest can you 
it out for me and say at the bottom \"for darkpred\"thanks very much ,darkpred 101 and i 
you enjoy!
Tap to rate this tab
 
# A B C D E F G H I J K L M N O P Q R S T U V W X Y Z