Song name
# A B C D E F G H I J K L M N O P Q R S T U V W X Y Z

Lotta Ahlin - Valkommen Till Jorden tab

-------------------------------------------------------------------------------
			     LOTTA AHLIN  Valkommen till jorden 
http://www.lottaahlin.com/
-------------------------------------------------------------------------------
Tabbed by: andmarsjo
Email: andreas.andmarsjo@gmail.com

Tuning: Standard
INTRO
e|--------4----------------2-----------2--------------------0-2/4------------|
B|------0------0---------3-----------3---------2-2/3---0-0-------------------|
G|----1------1---1-----2-----------2---------2-------2-----------------------|
D|--2----------------0---------0/2---------2---------------------------------|
A|----------------------------------------0----------------------------------|
E|---------------------------------------------------------------------------|
 ..vackraste                         sa stolt
e|-----------------2-------5-------7--------------2-------5----3-------------|
B|--------2------3-------3-------3--------2-----3-------3----2---2-------5/7-|
G|------2------2-------2-------2--------2-----2-------2----------------3-----|
D|----2------0-------0-------0--------2-----0-------0----------------2-------|
A|--0-------------------------------0------------------------------0---------|
E|---------------------------------------------------------------------------|
            Jag lyssna..
e|---------------2--------------2-4-------------------------------2----------|
B|---3---------3-----3--------5-----5---5--------2-5---2--------2---2---2----|
G|-2---2-----2-----2---2----2---------2--------4-----4---4----2-------2------|
D|---------0--------------2----------------0-2--------------4----------------|
A|---------------------------------------------------------------------------|
E|---------------------------------------------------------------------------|
  ..Minnas den dan..     MELLANSPEL
e|--------2-----------------------------0-2/4--------------------------------|
B|------3--------2-5----------2/3---0-0--------------------------------------|
G|----2--------4------------2-----2------------------------------------------|
D|--0--------2------------2--------------------------------------------------|
A|----------------------0----------------------------------------------------|
E|---------------------------------------------------------------------------|
    Valkommen till..                                            Som en angel..
E|---------5---5--------5---5--------2------------2----------2--------5---5--|
B|-------2---2--------2---2--------5---5--------3----------3--------5-2-2----|
G|-----4------------4------------4-------4----2----------2--------4----------|
D|---2------------2------------2------------0--------0/2--------2------------|
A|---------------------------------------------------------------------------|
E|---------------------------------------------------------------------------|

e|-------5-------2------------2--------2-------------------------------------|
B|-----2-------5---5--------3--------5---------------------------------------|
G|---4-------4-------4----2--------4-----------------------------------------|
D|-2-------2------------0--------2-------------------------------------------|
A|---------------------------------------------------------------------------|
E|---------------------------------------------------------------------------|
   MELLANSPEL              ..Allt kanns sa                           A slar..
e|-----------------0-2/4---------------------------5--------------2-------5/7|
B|-------2/3---0-0---------------2-3-2-0---2---------5----------3-------2----|
G|-----2-----2-----------------2---------2------2------6------2-------4------|
D|---2-----------------------2----------------2----------7--0-------2--------|
A|-0-----------------------0-------------------------------------------------|
E|---------------------------------------------------------------------------|
          Du stannar vall                                 Var morgondag
e|--------------5----------------10-9------------2-------------2-------------|
B|---2------------2---2-------2-------2--------3---2---2-----5---5---5-------|
G|-4---4-----2------3-------2-----------2----2-------3-----4-------4---------|
D|---------2--------------2----------------0--------------2------------------|
A|--------0-------------0----------------------------------------------------|
E|---------------------------------------------------------------------------|

Jag lyssna                          Sa latta som              
e|--------2--------------2-4-------------------------------2-----------------|
B|------3---2---2------5-----5---5--------2-5---2--------2---2---2-----------|
G|----2-------3------2---------2--------4-----4---4----2-------2-------------|
D|--0--------------2----------------0-2--------------4-----------------------|
A|---------------------------------------------------------------------------|
E|---------------------------------------------------------------------------| 
   Jag ska..            MELLANSPEL
e|--------2-----------------------------0-2/4--------------------------------|
B|------3--------2-5----------2/3---0-0--------------------------------------|
G|----2--------4------------2-----2------------------------------------------|
D|--0--------2------------2--------------------------------------------------|
A|----------------------0----------------------------------------------------|
E|---------------------------------------------------------------------------|
    Valkommen till..                                           Som en angel..
E|---------5---5--------5---5--------2------------2----------2--------5---5--|
B|-------2---2--------2---2--------5---5--------3----------3--------5-2-2----|
G|-----4------------4------------4-------4----2----------2--------4----------|
D|---2------------2------------2------------0--------0/2--------2------------|
A|---------------------------------------------------------------------------|
E|---------------------------------------------------------------------------|

e|-------5-------2------------2--------2-------------------------------------|
B|-----2-------5---5--------3--------5---------------------------------------|
G|---4-------4-------4----2--------4-----------------------------------------|
D|-2-------2------------0--------2-------------------------------------------|
A|---------------------------------------------------------------------------|
E|---------------------------------------------------------------------------|

e|--------0--------------------------0---------------------------------------|
B|------2-2---------3-2-0------------2---------3-----------2-----------------|
G|----2-----2---2---2-2-2-2--------2---2---2---2--2---2----2-----------------|
D|--0---------2-----2-2-2---2----2-------2-----2----2------2-----------------|
A|-----------------------------0---------------------------------------------|
E|---------------------------------------------------------------------------| 

Improvisera outro :P

| /  slide up
| \  slide down
| h  hammer-on
| p  pull-off
| ~  vibrato
| +  harmonic
| x  Mute note
===============================================================================

Tap to rate this tab
# A B C D E F G H I J K L M N O P Q R S T U V W X Y Z