Guitaretab - guitar tabs
Song name
# A B C D E F G H I J K L M N O P Q R S T U V W X Y Z

Lotto King Karl - Irgendwer Irgendwann tab

-------------------------------------------------------------------------------
			     Lotto King Karl - Irgendwer Irgendwann
-------------------------------------------------------------------------------
Tabbed by: th1mo
jau, Text stimmt hier nicht mit den tabs überein, also zeitlich.
in den refrains werden akkorde gespielt
(Bm ist das deutsche H-Moll)

Tuning: Standard

 Intro:

e|----------0------------------0------------------0----------------0-------|
B|------3-----3---3--------2-----2---2--------2-----2---2------------2---2-|
G|----2---2-----2--------2---2-----2--------2---2-----2----------2-----2---|(2x)
D|--0------------------0---------------------------------------2-----------|
A|-----------------------------------------2------------------0------------|
E|-------------------------------------------------------------------------|

 Strophe:

e|----------0------------------0------------------0----------------0-------|
B|------3-----3---3--------2-----2---2--------2-----2---2------------2---2-|
G|----2---2-----2--------2---2-----2--------2---2-----2----------2-----2---|
D|--0------------------0---------------------------------------2-----------|
A|-----------------------------------------2------------------0------------|
E|-------------------------------------------------------------------------|

 Schon soweit gekommen, schon soviel probiert

e|----------0------------------0------------------0----------------0-------|
B|------3-----3---3--------2-----2---2--------2-----2---2------------2---2-|
G|----2---2-----2--------2---2-----2--------2---2-----2----------2-----2---|
D|--0------------------0---------------------------------------2-----------|
A|-----------------------------------------2------------------0------------|
E|-------------------------------------------------------------------------|

Und du hast auch nie rausgefunden,wann der nächste Bus ins Niemandsland fährt
[ Tab from: http://www.guitaretab.com/l/lotto-king-karl/108094.html ]
e|---------------------------------------------------------------------------|
B|----------3------------------3-------------------3-----------------3-------|
G|------0-----0---0--------0-----0---0---------0-----0---0-------0-----0---0-|
D|----0---0-----0--------0---0-----0---------0---0-----0-------0---0-----0---|
A|---------------------0-------------------2-----------------0---------------|
E|--3------------------------------------------------------------------------|

 Und es ist auch so viel gutes in der Zwischenzeit passiert


e|---------------------------------------------------------------------------|
B|----------3------------------3-------------------3-----------------2-2-----|
G|------0-----0---0--------0-----0---0---------0-----0---0-------0---2-2-----|
D|----0---0-----0--------0---0-----0---------0---0-----0-------0---0-2-2-----|
A|---------------------0-------------------2-----------------0---------------|
E|--3------------------------------------------------------------------------|

 Und es bleibt auch ein Geheimnis, was es war und wie es wird

Chorus:

D.....G...............Bm..............A..................D...
Irgendwer kommt irgendwann und stellt deine Welt auf den Kopf

......G...............Bm.............A...............D...
Irgendwie passt irgendwo unter jeden Deckel auch ein Topf

........G..............Bm.................A............G.....
Du bist schon soweit gekommen und du hast schon soviel erlebt

.......A.......................Bm.................A.................D...
Und du weißt auch wie sich das anfühlt, wenn dein Herz und die Erde bebt

....G................Bm..................A.................D...
...............................Wenn dein Herz und die Erde bebt


...G.................Bm..................A.....................
...............................Wenn dein Herz und die Erde bebt


--> Strophe...

--> Refrain...


Zwischenteil:

 D - G - Bm - A   -->(4x)

D.......................G..........................Bm........
Kreissaal, freier Fall, Adventsball und Räucheraal Schultüte,

...........A...................
Haschtüte, Alditüte, Lümmeltüte

D.............................G.........................Bm.............
Scoutranzen, Schule schwänzen,Topfpflanzen, Pogo tanzen viel zu einfach,

................A........................
viel zu schwer, auf dem Weg zum Millionär

G......A...................Bm................A...............G.....
Und du suchst nach all den Lichtern, die den Weg nach vorn erhelln'

.......A................Bm...............A.................D......
Und vorbei ziehn die Gesichter, manchmal langsam, manchmal schnell

 D - G - Bm - A   -->(6x)

--> Refrain...



===============================================================================
Related for Irgendwer Irgendwann tab