Song name
# A B C D E F G H I J K L M N O P Q R S T U V W X Y Z

Lotto King Karl - Bis Der Arzt Kommt tab

Intro
e-----------------------------------------------------------------|
b-----------------------------------------------------------------|
g-5-5-5-5-5-5-5-5-------------------------------------------------| 2x
d-5-5-5-5-5-5-5-5-5-5-5-5-5-5-5-5-7-7-7-7-7-7-7-7-3-3-3-3-3-3-3-3-|
a-3-3-3-3-3-3-3-3-5-5-5-5-5-5-5-5-7-7-7-7-7-7-7-7-3-3-3-3-3-3-3-3-|
E-----------------3-3-3-3-3-3-3-3-5-5-5-5-5-5-5-5-1-1-1-1-1-1-1-1-|
 .........................pm......................................

Interlude
e-----------------------------|
b-----------------------------|
g-5-5-5-5-5-5-5---------------| 2x
d-5-5-5-5-5-5-5-5~5-5-5-5-5-5-|
a-3-3-3-3-3-3-3-5~5-5-5-5-5-5-|
E---------------3~3-3-3-3-3-3-|
 ..........pm.................

Verse
e--------------------------------------------------------------------- |  \
b--------------------------------------------------------------------- |   \
g-5-5-5-5-5-5-5-5-5-5-5-5-5-5-5-5---------------------------------  -- |
d-5-5-5-5-5-5-5-5-5-5-5-5-5-5-5-5-5-5-5-5-5-5-5-5-5-5-5-5-5-5-5-5-  -- |
a-3-3-3-3-3-3-3-3-3-3-3-3-3-3-3-3-5-5-5-5-5-5-5-5-5-5-5-5-5-5-5-5-  -- |
E---------------------------------3-3-3-3-3-3-3-3-3-3-3-3-3-3-3-3-  -- |
 .........................pm......................................   |
                                                                      > 2x
e-----------------------------------------------------------------  -- |
b-----------------------------------------------------------------  -- |
g-----------------------------------------------------------------  -- |
d-7-7-7-7-7-7-7-7-7-7-7-7-7-7-7-7-3-3-3-3-3-3-3-3-3-3-3-3-3-3-3-3-  -- |
a-7-7-7-7-7-7-7-7-7-7-7-7-7-7-7-7-3-3-3-3-3-3-3-3-3-3-3-3-3-3-3-3-  -- |
E-5-5-5-5-5-5-5-5-5-5-5-5-5-5-5-5-1-1-1-1-1-1-1-1-1-1-1-1-1-1-1-1----- |   /
 .....................pm..........................................  /

Chorus
e-----------------------------------------------------------------|
b-----------------------------------------------------------------|
g-5-5-5-5-5-5-5-5-------------------------------------------------| 4x
d-5-5-5-5-5-5-5-5-5-5-5-5-5-5-5-5-7-7-7-7-7-7-7-7-3-3-3-3-3-3-3-3-|
a-3-3-3-3-3-3-3-3-5-5-5-5-5-5-5-5-7-7-7-7-7-7-7-7-3-3-3-3-3-3-3-3-|
E-----------------3-3-3-3-3-3-3-3-5-5-5-5-5-5-5-5-1-1-1-1-1-1-1-1-|
 .........................pm......................................

Interlude

Verse

Chorus

Interlude

Then:
e------------------------------------------------------------------------- |
b------------------------------------------------------------------------- |
g-------------5-5~5-5-5-5~------------5-5~5-5-5-5~------------5-5~5-5-5-5~ |
d-5-5~5-5-5-5~5-5~5-5-5-5~5-5~5-5-5-5~5-5~5-5-5-5~5-5~5-5-5-5~5-5~5-5-5-5~ |
a-5-5~5-5-5-5~3-3~3-3-3-3~5-5~5-5-5-5~3-3~3-3-3-3~5-5~5-5-5-5~3-3~3-3-3-3~ |
E-3-3~3-3-3-3~------------3-3~3-3-3-3~------------3-3~3-3-3-3~------------ |
 ..............................pm.........................................

e------------------------------------------------- |
b------------------------------------------------- |
g------------------------------------------------- |
d-5-5~5-5-5-5~5-5~5-5-5-5~5-5~5-5-5-5~5-5~5-5-5-5~ |
a-5-5~5-5-5-5~5-5~5-5-5-5~5-5~5-5-5-5~5-5~5-5-5-5~ |
E-3-3~3-3-3-3~3-3~3-3-3-3~3-3~3-3-3-3~3-3~3-3-3-3~ |
 ......................pm.........................

Chorus
e-----------------------------------------------------------------|
b-----------------------------------------------------------------|
g-5-5-5-5-5-5-5-5-------------------------------------------------| 7x
d-5-5-5-5-5-5-5-5-5-5-5-5-5-5-5-5-7-7-7-7-7-7-7-7-3-3-3-3-3-3-3-3-|
a-3-3-3-3-3-3-3-3-5-5-5-5-5-5-5-5-7-7-7-7-7-7-7-7-3-3-3-3-3-3-3-3-|
E-----------------3-3-3-3-3-3-3-3-5-5-5-5-5-5-5-5-1-1-1-1-1-1-1-1-|
 .........................pm......................................

End
e---
b---
g-5~
d-5~
a-3~
E---

Have fun, folks! ;)
Didn't want to tab the 2nd guitar part atm...it's easy (but I'm-ah bored now)
Tap to rate this tab
# A B C D E F G H I J K L M N O P Q R S T U V W X Y Z