Lotus - Behind Midwest Storefronts tab

Lotus-Behind Midwest Storefronts

I could never find a tab so attempted it myself! It may not be exact but it's close.

Standard Tuning

Intro
--------2---5---2h5----2---5---5s7-----------------|
-0~---0---0---0------0---0---0---------------------|
---------------------------------------------------|
---------------------------------------------------|
---------------------------------------------------|
---------------------------------------------------|

Verse
-----------------------------------------------------|
-----------------------------------------------------|
-2/4-7-7-7-7-7-4-7-7-7---2/4-7-7-7-7-7-4-7-7--- -----|
---------------------------------------------7-------|
-----------------------------------------------------|
-----------------------------------------------------|

---------------------------------------------------|
-----------7-5---5h7-5---5-------------------------|
-2/4-7-7-7-------------7---7-----------------------|
---------------------------------------------------|
---------------------------------------------------|
---------------------------------------------------|

Chorus

---3------------------------------------------------|
--------5h7-5-3---5-3-----3-----3---5-2-------------|
-4---4----------------2-4----2h4--4-----------------|
----------------------------------------------------|
----------------------------------------------------|
----------------------------------------------------|

----------------------------------------------------|
-2--------------------------------------------------|
---2-2---4-2------------2---------------------4-2---|
-------------2-0---0-2/4--4\2--0-2-0----------------|
-----------------2--------------------2--0--2-------|
----------------------------------------------------|

I know theres other parts and little things but thats all I've got. I hope you all 
Post any questions or comments if you want.

LISTEN TO LOTUS. THEY ARE AMAZING.
Tap to rate this tab
 
# A B C D E F G H I J K L M N O P Q R S T U V W X Y Z