Lotus - Its All Clear To Me Now tab

-------------------------------------------------------------------------------
			     IT'S ALL CLEAR TO ME NOW-LOTUS
-------------------------------------------------------------------------------
Tabbed by: Ben Kolakowski
Email: benkola`2mac.com 

Tuning:standard

intro chords with delay

Dm7 Am7 G Dm7 Am7 (repeat over and over)

main lick
(listen for correct timing)
lick 1
e|15---13--------------------------------------------------------------------|
B|----------------------13---------------------------------------------------|
G|--14---12---------14-----------12-------14---------------------------------|
D|---------------15-----------------14-15---------14--------------------------|
A|---------------------------------------------------15-12-----------12--15--|
E|------------------------------------------------------------12-13----------|
later on this lick is played up 4 frets aka a minor third

next lick
lick 2
e|-----------------------------------14-------13------12---------------------|
B|-12--------------------------15------15-------14------13-------------------|
G|----11-------------------14------------16-------15-------------------------|
D|--------12------------15---------------------------------------------------|
A|------------14-----18------------------------------------------------------|
E|---------------------------------------------------------------------------|

lick 3 (add gain)

e|--15----13-----------------------------------------------------------------|
B|-----------------------13------13--12--------------------------------------|
G|----14----12-------14-------14-------14---------------------12--12h14------|
D|----------------15--------15---------------14-15-14---12-------------------|
A|----------------------------------------------------15--15-----------------|
E|---------------------------------------------------------------------------|

order of main melody (depending on what version you listen to it may be different, probably is)

chords x4 or more
main lick x16
lick 2 x4
main lick x8
lick 2 x4
main lick + minor third up x2
main lick (normal) x6
lick 2 x4
interlude thingy (if you cant figure this out ill post it later)
main lick x4
lick 3 x4

>jam
then just vamp on the main lick and it ends eventually




listen to lotus! go see them live! they're incredible!


Tap to rate this tab
 
# A B C D E F G H I J K L M N O P Q R S T U V W X Y Z