Song name
# A B C D E F G H I J K L M N O P Q R S T U V W X Y Z

Lotus - Wooly Mammoth tab

Artist: Lotus
Song: Wooly Mammoth
Album: Escaping Sargasso Sea

The time of where a certain part comes in is right above the tab. If a section is 
repeated a certain amount of times, its indicated below the line.

0:00
e|------------------------------------------------------|
B|------------------------------------------------------|
G|--------------------------------------------------5---|
D|-5h7--5---5--5--5h7-7-7-7--5h7--5---5--5--5h7-7-7-----|
A|------------------------------------------------------|
E|------------------------------------------------------|
        ^x4^    ^x4^    ^x4^    ^x4^    ^x4^    ^x4^    ^x4^    ^x4^
0:21
e|--------------------------------------------------------------------------|
B|--------------------------------8----6-------------8----6-----------------|
G|--------------------------5---7----7-----7-9-5---7----7----7-9-5--5-5/7-7-|
D|-5--5/7-7~~~--5--5/7-7~~~-------------------------------------------------|
A|--------------------------------------------------------------------------|
E|--------------------------------------------------------------------------|
        ^x2^    ^x2^    ^x2^    ^x2^    ^x2^    ^x2^    ^x2^    ^x2^    ^x2^    ^x2^    ^x2^
   ^x2^
0:43
e|------------------------------------------------------|
B|------------------------------------------------------|
G|--------------------------------------------------5---|
D|-5h7--5---5--5--5h7-7-7-7--5h7--5---5--5--5h7-7-7-----|
A|------------------------------------------------------|
E|------------------------------------------------------|
        ^x2^    ^x2^    ^x2^    ^x2^    ^x2^    ^x2^    ^x2^    ^x2^
0:54
e|------------------------------------------------------|
B|------------------------------------------------------|
G|------------------------5-------------------------5---|
D|-5h7--5---5--5--5h7-7-7----5h7--5---5--5--5h7-7-7-----|
A|------------------------------------------------------|
E|------------------------------------------------------|
1:01
e|------------------------------------------------------|
B|------------------------------------------------------|
G|--------------------------------------------------5---|
D|-5h7--5---5--5--5h7-7-7-7--5h7--5---5--5--5h7-7-7-----|
A|------------------------------------------------------|
E|------------------------------------------------------|
1:04
e|--------------------------------------------------------------------------|
B|--------------------------------8----6-------------8----6-----------------|
G|--------------------------5---7----7-----7-9-5---7----7----7-9-5--5-5/7-7-|
D|-5--5/7-7~~~--5--5/7-7~~~-------------------------------------------------|
A|--------------------------------------------------------------------------|
E|--------------------------------------------------------------------------|
1:16
e|----------------------------------------------|
B|----------------------------------------------|
G|-----------7-5--------------------7-5---------|
D|-5--5/7-7~~----7-5------5--5/7-7~~----7-5-----|
A|-------------------7----------------------7---|
E|----------------------------------------------|
1:21
e|----------------------------------------------------------------|
B|----------------------------------------------------------------|
G|-7-5---------5----------7-5------7-5----------------------------|
D|-----7-5-------7-5----------7--------7-5------5---------------5-|
A|---------7---------7-5-------------------7------7-5-5-5-5-5/7---|
E|----------------------------------------------------------------|
1:27
e|----------------------|
B|-----------8---6------|
G|-------------7-----5--|
D|-5--5/7-7~~-----------|
A|----------------------|
E|----------------------|
1:30                                    ?       ?       ?       ?       ?       ?       ?
      ?
e|------------------------------------------------------------------------|
B|----------------------------6~~~~~~6~~~~6~~~~5~~~8~~~8~~~8~~~8~~~8~~~8~~|
G|------------5-5-5/7-7-7---7--7-7-7--7-7--7-7--7-7-7-7-7-7-7-7-7-7-7-7-7-|
D|-5--5/7-7~~-------------------------------------------------------------|
A|------------------------------------------------------------------------|
E|------------------------------------------------------------------------|
1:38
e|---------------------|
B|---------------------|
G|---------------------|
D|----------------8~~~-|
A|---------------------|
E|--6-6-6-6-6---6------|
        ^x2^    ^x2^    ^x2^
1:42
e|-----------------------------------------------------------|
B|-----------------------------------------------------------|
G|-10p8p7--------------------5b7r5b7r5~~---------------------|
D|-------10p8p7----------------------------------5b7r5b7r5~~-|
A|-------------10p8p7-7~~~~--------------7~~~~---------------|
E|-----------------------------------------------------------|






1:48
e|---------------------|
B|---------------------|
G|---------------------|
D|----------------8~~~-|
A|---------------------|
E|--6-6-6-6-6---6------|
        ^x2^    ^x2^    ^x2^
1:53
e|-----------------------------------------------------------|
B|-----------------------------------------------------------|
G|-10p8p7--------------------5b7r5b7r5~~---------------------|
D|-------10p8p7----------------------------------------------|
A|-------------10p8p7-7~~~~--------------7~~~~---7---8---10--|
E|-----------------------------------------------------------|
1:59
e|---------------------------------|
B|---------------------------------|
G|----------------------7!---5-----|
D|-7--7-----7-----7------------7-5-|
A|------8-----7-----5--------------|
E|---------------------------------|
2:05
e|----------------------------------|
B|----------------------------------|
G|----------------------------------|
D|--7-----7-----7-------------------|
A|-----8-----7-----5-----------3----|
E|----------------------3h5p3h5-----|
2:11
e|-------------------------------|
B|-------------------------------|
G|--------------------7!---5-----|
D|--7-----7-----7------------7-5-|
A|----8-----7-----5--------------|
E|-------------------------------|
2:17
e|----------------------------------|
B|----------------------------------|
G|----------------------------------|
D|--7-----7-----7-------------------|
A|-----8-----7-----5-----------3----|
E|----------------------3h5p3h5-----|






2:21
e|----------------------|
B|----------------------|
G|----------------------|
D|--8--8---7--7h8-------|
A|----------------8--7--|
E|----------------------|
2:27
e|--------------------------------------------|
B|--------------------------------------------|
G|--------------------------------------------|
D|--8--8---7--7h8-----------------------------|
A|----------------8--7---7~~/10--10--10-10-10-|
E|--------------------------------------------|
2:32
e|---------------------------------|
B|---------------------------------|
G|----------------------7!---5-----|
D|-7--7-----7-----7------------7-5-|
A|------8-----7-----5--------------|
E|---------------------------------|
2:39
e|----------------------------------|
B|----------------------------------|
G|----------------------------------|
D|--7-----7-----7-------------------|
A|-----8-----7-----5-----------3----|
E|----------------------3h5p3h5-----|
2:44
e|-------------------------------|
B|-------------------------------|
G|--------------------7!---5-----|
D|--7-----7-----7------------7-5-|
A|----8-----7-----5--------------|
E|-------------------------------|
2:50
e|----------------------------------|
B|----------------------------------|
G|----------------------------------|
D|--7-----7-----7-------------------|
A|-----8-----7-----5-----------3----|
E|----------------------3h5p3h5-----|







2:55
e|------------------------------------------------------|
B|------------------------------------------------------|
G|--------------------------------------------------5---|
D|-5h7--5---5--5--5h7-7-7-7--5h7--5---5--5--5h7-7-7-----|
A|------------------------------------------------------|
E|------------------------------------------------------|
        ^x3^    ^x3^    ^x3^    ^x3^    ^x3^    ^x3^    ^x3^    ^x3^
3:11
e|------------------------------------------------------------|
B|------------------------------------------------------------|
G|------------------------------------------------------------|
D|-5h7--5---5--5--5h7-7-7-7--5h7--5---5--5--5h7-5h7-5h7~~~~~~~|
A|------------------------------------------------------------|
E|------------------------------------------------------------|


BREAK (w/Feedback)


3:37
e|-----------------------------------------------------------------------|
B|-----------------------------------------------------------------------|
G|----9p7p5---5----5/7-7/9------9p7p5---5----5/4-------------------------|
D|---------7----7--------------------7----7------5--------------5-7--5-7-|
A|---------------------------------------------------5-7--5-7------------|
E|-----------------------------------------------------------------------|
3:49
e|--------------------------------------------------------------------------|
B|--------------------------------------------------------------------------|
G|--9p7p5---5-------7/9------9p7p5---5----5-4-------------------------------|
D|-------7------7-----------------7-----7-----5--5/7---------------5-7--5-7-|
A|---------------------------------------------------7---5-7--5-7-----------|
E|--------------------------------------------------------------------------|
4:00
e|--------------------------------------------------|
B|-------8--8-8--10----------8-8----10---12---8-----|
G|--7/9-------------9---7--9-----9------------------|
D|--------------------------------------------------|
A|--------------------------------------------------|
E|--------------------------------------------------|
4:06
e|------------------------------------------------------|
B|-------8--8----10-----------------8-8----10---12---8--|
G|--7-9-------9-----9----7--9-9-9-------9---------------|
D|------------------------------------------------------|
A|------------------------------------------------------|
E|------------------------------------------------------|

This is as far as I got the solo continues...

[/] Slide Up
[h] Hammer On
[p] Pull Off
[!] Accent Note
[~] Sustain Note
Tap to rate this tab
# A B C D E F G H I J K L M N O P Q R S T U V W X Y Z