Song name
# A B C D E F G H I J K L M N O P Q R S T U V W X Y Z

Lotus - Colorado tab

Artist: Lotus
Song: Colorado (intro)
Album: Nomad

|---------------------------------------------------------|
|---------------------------------------------------------|
|--------4~-------------------------4~--------------------|
|----4~~~~~4\2~~~~2~~~~~~~\-----4~~~~~4/2~~~~2~~/4~~~~~~~~|
|-7~~~~7~~~~----4~~~~~~~~~\--7~~~~7~~~~----4~~~4/6~~~~~~~~|
|-----------------------------------------------------7~~~|

|---------------------------------------------------------------|
|---------------------------------------------------------------|
|--------4~-----------------------------------------------------|
|----4~~~~~4\2~~~~2~~~~~~~\----2----2/4~~~~~~~~~4h6~4\2~2~~~~~~~|
|-7~~~~7~~~~----4~~~~~~~~~\--4---4--4/6~~~~~~~~~6~~~4\2~2~~~~~~~|
|-----------------------------------------------------------0~~~|

[~] Sustain Note
[\] Slide Down
[/] Slide Up
[h] Hammer On
Tap to rate this tab
 
# A B C D E F G H I J K L M N O P Q R S T U V W X Y Z