Song name
# A B C D E F G H I J K L M N O P Q R S T U V W X Y Z

Lotus - Kesey Seed tab

This is my first tab on here, tell me what you think!

Standard Tuning
~ = let ring

Intro:
(this is the piano part)
Play section 1 eleven times

 1.                   2. 
e|-7~----------7~-----|--7-7~--7-7~--7-7~--7-7-7-|
B|-8-8~---10-8-8-8~---|--8-8~--8-8~--8-8~--8-8-8-|
G|---7~---9--7---7~--o|--7~----7~----7~----7~----|
D|-------------------o|--------------------------|
A|--------------------|--------------------------|
E|--------------------|--------------------------|

Refrain:

e|-8--10-7-8-----7---------------|
B|-----------10-----8-10----8----|
G|-----------------------9~---9-o|
D|------------------------------o|
A|-------------------------------|
E|-------------------------------|

Play this 8 times, then play the intro again, but the timing is different this time around.
Eventually it will lead back into the piano playing the refrain.
I haven't figure out the end guitar solo yet.
Tap to rate this tab
# A B C D E F G H I J K L M N O P Q R S T U V W X Y Z