Song name
# A B C D E F G H I J K L M N O P Q R S T U V W X Y Z

Lotus - Suitcases tab

Lotus
Suitcases
Nomad

Standard Tuning

Synth Intro:                             x15
E|--7----7--------||--------7--7---------||--
B|----------------||.--7h10-------------.||--
G|----------6--7--||--------------6--7---||--
D|----------------||---------------------||--
A|----------------||.-------------------.||--
E|----------------||---------------------||--

Guitar intro:
E|-----------------------------------------|----------------------|--
B|-----------------------------------------|----------------------|--
G|--6h7-------6h7----------6h7--------6h7--|--6h7--6h7--6h7--6h7--|--
D|-----------------------------------------|----------------------|--
A|-----------------------------------------|----------------------|--
E|-----------------------------------------|----------------------|--

--------------
Guitar 1:
E|-----------------|--
B|--5~-------7~----|--
G|--6~-------7~----|--
D|-----------------|--
A|-----------------|--  x12
E|-----------------|--

Guitar 2:
E|-------------------|---------------------|--
B|--7----------------|---------------------|--
G|--7--6h7--6--6-----|-------6h7--6--6-----|--
D|----------------9--|--7h9-------------9--|--
A|-------------------|---------------------|--
E|-------------------|---------------------|--
-----------------


E|--7~~---------5~-------5--------|--
B|--7~~---7--7--5~----7--5--7~----|--
G|--------6--7--------6-----7~----|--
D|--------------------------------|--     x4
A|--------------------------------|--
E|--------------------------------|--

E|----------------------|--
B|-------------5--------|--
G|--/6~------------6~~--|--
D|--------7--4----------|--     x8
A|----------------------|--
E|----------------------|--

[Jam]
[Jam over synth intro part]

Guitar 1: (alternating with guitar 2)
E|--7~~---------5~-------5--------|--
B|--7~~---7--7--5~----7--5--7~----|--
G|--------6--7--------6-----7~----|--
D|--------------------------------|--     x4
A|--------------------------------|--
E|--------------------------------|--

Guitar 2: (directly after guitar 1)
E|-------------------|---------------------|--
B|--7----------------|---------------------|--
G|--7--6h7--6--6-----|-------6h7--6--6-----|--
D|----------------9--|--7h9-------------9--|--    x3
A|-------------------|---------------------|--
E|-------------------|---------------------|--


E|----------------------|--
B|-------------5--------|--
G|--/6~------------6~~--|--
D|--------7--4----------|--     x4
A|----------------------|--
E|----------------------|--

Outro:
E|---------------------|--
B|---------------------|--
G|-------6h7--6--6-----|--
D|--7h9-------------9--|--
A|---------------------|--
E|---------------------|--
Tap to rate this tab
 
# A B C D E F G H I J K L M N O P Q R S T U V W X Y Z