Song name
# A B C D E F G H I J K L M N O P Q R S T U V W X Y Z

Lotus - Livingston Storm tab

Lotus
Livingston Storm
Nomad

Standard Tuning

Guitar 1:
E|----------12~------|--11~~--|
B|--------------13~--|--11~~--|
G|------11~----------|--11~~--|
D|--13~--------------|--13~~--|         x4
A|-------------------|--------|
E|-------------------|--------|

Guitar 2:
E|----------------|--------------------------|--
B|----------------|--------------------------|--
G|----------------|--------------------------|--
D|----------------|--------------13--11------|--
A|--9--11-/-13~---|--9--11-/-13----------13--|--
E|----------------|--------------------------|--

E|----------------|-------------------------------|--
B|----------------|-------------------------------|--
G|----------------|-------------------------------|--
D|----------------|--------------11---------------|--
A|--9--11-/-13~---|--9--11-/-13----------11-/-13--|--
E|----------------|-------------------------------|--

E|----------------|----------------|-----------------------------------|--
B|----------------|----------------|-----------------------------------|--
G|----------------|----------------|-----------------------------------|--
D|----------------|----------------|--------------11-------------------|--
A|--9--11-/-13~---|--9--11-/-13~---|--9--11-/-13------13--11--11-/-13--|--
E|----------------|----------------|-----------------------------------|--

E|----------------|----------------|------------------------------------|--
B|----------------|----------------|------------------------------------|--
G|----------------|----------------|--------------10h11p10--------------|--
D|----------------|----------------|-----------------------11--11h13----|--
A|--9--11-/-13~---|--9--11-/-13~---|--9--11-/-13------------------------|--
E|----------------|----------------|------------------------------------|--

-------------------

E|------------------------------|----------------------|--
B|------------------------------|----------------------|--
G|--11--10--11--10--11--10--11--|--10--11--10----------|--
D|------------------------------|--------------11------|--    x4
A|------------------------------|------------------13--|--
E|------------------------------|----------------------|--

Solo 1:
E|--9----------------13b14r13~---|------11h13----------------------|--
B|----------------9--------------|-------------11------------------|--
G|-------------------------------|-----------------13--10b11r10~---|--
D|-----11--b--13-----------------|---------------------------------|--
A|-------------------------------|---------------------------------|--
E|-------------------------------|---------------------------------|--

E|-------------------------------------|-------------------------------------
B|-------------------------------------|-------------------------------------
G|-------------------------------------|------------------11/13-11--10b11r10~
D|--11/13\11~--------------------------|----11/13\11~--11--------------------
A|-------------9--11/13--11/13--\11\9~-|-13----------------------------------
E|-------------------------------------|-------------------------------------

E|--9/11--------------------------|-------------11--14r13--11--9--11--9h11~-|
B|--------9/11--------------------|---------14------------------------------|
G|--------------11/13-------------|--11/13----------------------------------|
D|---------------------11/13------|-----------------------------------------|
A|--------------------------------|-----------------------------------------|
E|--------------------------------|-----------------------------------------|

E|--16b18r17b18~--18r16------14------14--16--13~~~-|------|--
B|-----------------------16------16----------------|------|--
G|-------------------------------------------------|------|--
D|-------------------------------------------------|------|--
A|-------------------------------------------------|--13--|--
E|-------------------------------------------------|------|--
-----------

E|------------------------------|----------------------|--
B|------------------------------|----------------------|--
G|--11--10--11--10--11--10--11--|--10--11--10----------|--
D|------------------------------|--------------11------|--    x2
A|------------------------------|------------------13--|--
E|------------------------------|----------------------|--

                       x15
E||--------------------||-------------------|---
B||.------------------.||-------------------|---
G||------10--10--------||-----------10--10~-|---
D||--------------------||-------------------|---
A||.-13----------13---.||-------13----------|---
E||--------------------||-------------------|---


E|----------------------------------------------13-------------------------|-
B|----------11----------------14--11--------11------14------------14--11~--|-
G|------11------10--------13------------11--------------------13-----------|-
D|--13----------------11----------------------------------11---------------|-
A|-------------------------------------------------------------------------|-
E|-------------------------------------------------------------------------|-
x4

E|------------------|---------------------|------------------|--
B|------------------|---------------------|------------------|--
G|--11--10----------|--11--10-------------|--11--10----------|--
D|----------11------|----------11--11/13--|----------11------|--
A|--------------13--|---------------------|--------------13--|--
E|------------------|---------------------|------------------|--


E|--14--13--11------------------------------|--
B|--------------14--11----------------------|--
G|----------------------13--11--10----------|--
D|----------------------------------11------|--
A|--------------------------------------13--|--
E|------------------------------------------|--

E|---------------------------------------------|--
B|--14--11-------------------------------------|--
G|----------13--10--11--10---------------------|--
D|--------------------------13--11--13--11/13--|--
A|---------------------------------------------|--
E|---------------------------------------------|--

E|--21--18----------------------------------------------|--
B|----------19--18--16----------------------------------|--
G|----------------------18----------15------------------|--
D|--------------------------16--18------18--16--15------|--
A|--------------------------------------------------18--|--
E|------------------------------------------------------|--

E|--14--13--------------------------------|--
B|----------14--11------------------------|--
G|------------------13--11--10------------|--
D|------------------------------11--9--8--|--
A|----------------------------------------|--
E|----------------------------------------|--

E|----------13~------|--------------13~--|--
B|--------------14~--|----------14~------|--
G|------11~----------|------11~----------|--
D|--13~--------------|--13~--------------|--
A|-------------------|-------------------|--
E|-------------------|-------------------|--

[Jam]

E|------------------------------|----------------------|--
B|------------------------------|----------------------|--
G|--11--10--11--10--11--10--11--|--10--11--10----------|--
D|------------------------------|--------------11------|--    x4
A|------------------------------|------------------13--|--
E|------------------------------|----------------------|--
          
                      x8
E||--------------------||-------------------|---
B||.------------------.||-------------------|---
G||------10--10--------||-----------10--10~-|---
D||--------------------||-------------------|---
A||.-13----------13---.||-------13----------|---
E||--------------------||-------------------|---

E|----------------------------------------------13-------------------------|-
B|----------11----------------14--11--------11------14------------14--11~--|-
G|------11------10--------13------------11--------------------13-----------|-
D|--13----------------11----------------------------------11---------------|-
A|-------------------------------------------------------------------------|-
E|-------------------------------------------------------------------------|-
x6 (fade out)

Tap to rate this tab
# A B C D E F G H I J K L M N O P Q R S T U V W X Y Z