Song name
# A B C D E F G H I J K L M N O P Q R S T U V W X Y Z

Lotus - Spiritualize tab

Artist: Lotus
Song: Spiritualize
Album: Nomad

(0:14)
|---------3-3-------|----|---------3--------|----|
|-------------------|----|-----------4------|----|
|-5-5-----------3-3-|-x4-|-5-5-----------3-3|-x4-| Repeat all
|-------------------|----|------------------|----| this x3
|-------------------|----|------------------|----|
|-------------------|----|------------------|----|

Synth Break

(1:09)
|------------3-----|----|-------------6-3--|----|
|--------------6---|----|------------------|----|
|-3h5-555-3--------|-x2-|-3h5-555-3--------|-x2-| Repeat all
|------------------|----|------------------|----| this x3
|------------------|----|------------------|----|
|------------------|----|------------------|----|

(1:30) On the fourth time
|------------3-----|----|--------------6-3----------------6-3-6/8---|
|--------------6---|----|-------------------------------------------|
|-3h5-555-3--------|-x2-|-3h5-555-3----------3h5-555-3--------------|
|------------------|----|-------------------------------------------|
|------------------|----|-------------------------------------------|
|------------------|----|-------------------------------------------|

(1:39)
|----------------|
|-9-8-----6------| 
|-------------8--|
|-----8----------|
|----------------|
|----------------|

|-------------6-------------------|
|-9-8--------------9-8-----6------|
|----------8-------------------8--| x5
|-----10---------------8----------|
|---------------------------------|
|---------------------------------|

(2:17)
|-11--11-10--10-----|
|---------------11--|
|-------------------| Repeat
|-------------------|
|-------------------|
|-------------------|

(2:59)
|-11--11-10--10-----|
|---------------11--|
|-------------------| Play with wah 
|-------------------| pedal sweeping up
|-------------------| and down
|-------------------|

(3:26)
|--------------------------------------------------------|
|----8\------------------------8\------------------------|
|-5---------------8-5------------------------8-5---5-----|
|-------------5-8----------5-------------5-8-----8-------|
|--------------------------------------------------------|
|--------------------------------------------------------|

(3:33)
|-------------------------------------------------|
|----8\------------------------8\-----------------|
|-----------------8-5------------------------8-5--|
|-5-----------5-8----------5-------------5-8------|
|-------------------------------------------------|
|-------------------------------------------------|

(3:39)
|-----------------------------------------6-----------------|
|--/8--/8---------/8--/8---------/8--/8---------/8--/8------|
|-----------5--------------5-----------------------------5--|
|-----------------------------------------------------------|
|-----------------------------------------------------------|
|-----------------------------------------------------------|

(3:46)
|---8----------------------6------8--------------------------|
|------/8---------/8--/8-------------/8---------/8--/8-------|
|-----------5-----------------------------5------------------|
|------------------------------------------------------------|
|------------------------------------------------------------|
|------------------------------------------------------------|

(3:55)
|--10/11-------------|
|----------11---8----|
|--------------------| x7
|--------------------|
|--------------------|
|--------------------|

(4:07) 
|-10h11p10------------10h11p10--------------10h11p10----------------------10h11p10----|
|-----------8---8---------------------8---------------11---------8--------------------|
|------------------------------------------------------------10-----------------------| x2
|-------------------------------------------------------------------------------------|
|-------------------------------------------------------------------------------------|
|-------------------------------------------------------------------------------------|

(4:21)
|--15-------------|
|-----------------|
|------15---17----| x4
|-----------------|
|-----------------|
|-----------------|

|-15-15-------------15-------------|
|----------------------------------|
|--------15---17--------15---17----| x5
|----------------------------------|
|----------------------------------|
|----------------------------------|

|-15-15-------------15-/---|
|--------------------------|
|--------15---17-----------|
|--------------------------|
|--------------------------|
|--------------------------|

(4:35)
|--18--------18---------------------15--|
|-------16------15---------16p15--------|
|--------------------------------17-----| x8
|---------------------------------------|
|---------------------------------------|
|---------------------------------------|

|-------------------------------------------------|
|--------------16-------------18--------------16--|
|---15---17---------15---17---------15---17-------|
|-------------------------------------------------|
|-------------------------------------------------|
|-------------------------------------------------|

|-----------15------------------|
|--------------------------16---|
|-15---17--------15---17--------| x5
|-------------------------------|
|-------------------------------|
|-------------------------------|

(4:58)
|----------------------------------------------------------------------------|
|-16-16----15-15-------------------------------------------------------------|
|-------------------15-15----------------------------------------------------|
|----------------------------17-17----15-15----------------------------------|
|----------------------------------------------18-18-----13--13--13--13/15---|
|----------------------------------------------------------------------------|

|-------------------------------15-------------------------------------15----|
|-------------------------16h18-------------------16-------------16h18-------|
|---------15h17--------17--------------------15h17------------17-------------| x4
|--15-------------------------------------17---------------------------------|
|----------------------------------------------------------------------------|
|----------------------------------------------------------------------------|

(5:29)
|--18-------18---------------------18------18------|
|------16------15----------------------16-----15\--|
|---------------------15---------------------------| x4
|--------------------------------------------------|
|--------------------------------------------------|
|--------------------------------------------------|

|---------------------------------------------------|
|--15b16r15-----------------15b16r15----------------|
|-------------15---15------------------15-----------|
|------------------------------------------17--15---| x2
|---------------------------------------------------|
|---------------------------------------------------|

|-----------------------------------|
|---15b16r15------------------------|
|-------------15--------------------|
|-----------------17--15------------| x2
|-------------------------18--------|
|-----------------------------------|

|---------------------------------------------------------|
|--15b16r15------------------------15b16r15---------------|
|--------------15------15---------------------15------17~~|
|------------------17-----------------------------17------|
|---------------------------------------------------------|
|---------------------------------------------------------|


Synth Break


(6:12)
|--------------------------3-------------|
|--------------4----6p4--------6---4-----|
|--3-3---5----------------------------5--|
|----------------------------------------|
|----------------------------------------|
|----------------------------------------|

|--10/11--8/10---------------------------|
|---------------11--8---8\6--------------|
|------------------------------8--5--8---|
|----------------------------------------|
|----------------------------------------|
|----------------------------------------|

|--11--10-11--10-------8---------------------|
|------------------11----11--8---8--11p8--8--|
|--------------------------------------------|
|--------------------------------------------|
|--------------------------------------------|
|--------------------------------------------|

|-------------|
|--8----------|
|------8---5--|
|-------------|
|-------------|
|-------------|


(6:24)
|------------3-----|----|-------------6-3--|----|
|--------------6---|----|------------------|----|
|-3h5-555-3--------|-x2-|-3h5-555-3--------|-x2-| Repeat all
|------------------|----|------------------|----| this x3
|------------------|----|------------------|----|
|------------------|----|------------------|----|

On the fourth time
|------------3-----|----|--------------6-3----------------6-3-6/8---|
|--------------6---|----|-------------------------------------------|
|-3h5-555-3--------|-x2-|-3h5-555-3----------3h5-555-3--------------|
|------------------|----|-------------------------------------------|
|------------------|----|-------------------------------------------|
|------------------|----|-------------------------------------------|

|----------------|
|-9-8-----6------| 
|-------------8--|
|-----8----------|
|----------------|
|----------------|

|-------------6-------------------|
|-9-8--------------9-8-----6------|
|----------8-------------------8--| x3
|-----10---------------8----------|
|---------------------------------|
|---------------------------------|


|------/15-------18------18--------------------------------------------|
|--------------------16------15----------------------------------------|
|--15-----------------------------15--15h17--15------------15----------|
|--------------------------------------------------15--17------15/17---|
|----------------------------------------------------------------------|
|----------------------------------------------------------------------|

|---------------18--x-16--15---|
|--------16-18-----------------|
|-----15-----------------------|
|--17--------------------------|
|------------------------------|
|------------------------------|

|-23-22-23--x18-18h20-18--15--------------18-------------------|
|-----------------------------18--16--15------16--15-----------|
|----------------------------------------------------15h17-15--|
|--------------------------------------------------------------|
|--------------------------------------------------------------|
|--------------------------------------------------------------|

(7:33)
|-----------18---16---15-------|
|-------16-----------------16--|
|----15------------------------| x6
|-17---------------------------|
|------------------------------|
|------------------------------|

|-15h16--15--------------------------------------------|
|-------------16---16h18--16---------------------------|
|------------------------------15---15h17--15----------|
|----------------------------------------------18--17--|
|------------------------------------------------------|
|------------------------------------------------------|

(7:46) (Fades In)
|-11--11-10--10-----|
|---------------11--|
|-------------------|
|-------------------|
|-------------------|
|-------------------|

(8:14) 1st Harmony
|-15--15-13--13-----|
|---------------16--|
|-------------------|
|-------------------|
|-------------------|
|-------------------|

(8:28) 2nd Harmony
|-18--18------------|
|--------18--18-16--|
|-------------------|
|-------------------|
|-------------------|
|-------------------|

(8:41)
|-11--11-10--10-----|
|---------------11--|
|-------------------| Play with wah 
|-------------------| pedal sweeping up
|-------------------| and down
|-------------------|
Tap to rate this tab
 
# A B C D E F G H I J K L M N O P Q R S T U V W X Y Z