Song name
# A B C D E F G H I J K L M N O P Q R S T U V W X Y Z

Lou Barlow - Legendary tab

Lou Barlow - Legendary

http://loobiecore.com/
http://www.myspace.com/loubarlow

Tabbed by Sam Wallis (sam_8orbetter@hotmail.co.uk)


Capo 2nd/3rd (album 2nd, live 3rd)

 
Intro, verse and break:

   Em             C              G            D
   
e|------------0-------------------------------0/2-2-0------------------------|
B|---------8---------------3---------0--------3---3---3----------------------|
G|-----0----------------0--------------0------0---0-----0--------------------|
D|-------------------2------------------------4---4--------------------------|
A|--7-------------3----------------2----------5---5--------------------------|
E|-------------------------------3-------------------------------------------|

   Em             C              G            G 

e|-------7-7------------0----------------------------------------|
B|-------8-8---------------3---------0--------------0------------|
G|-----0-------------------------------0--------------0----------|
D|-------------------2-------------------------------------------|
A|--7-------------3----------------2------------2----------------|
E|-------------------------------3------------3------------------|



CHORDS PICKED:

Em   C   G   D 

e--------------0---
B--8---3---0---3---
G--0---0---0---0---
D--5---2---0---4---
A--7---3---2---5---
E----------3-------

 
Em                  C                  G          D 
I know you've given all that you could give to me
Em                     C               G       G
I know there'll come a day I understand
Em                 C                    G      D 
Until then I'll be trying to solve your mystery
Em            C                G      G
Wonder why I couldn't make you stay


Em              C          G         D    
Smiling through denial, my speciality
Em                 C                G
I thought that was a good thing for awhile
Em                   C                 G         D 
You gave me all your secrets, were you testing me?
Em             C            G
How could I do anything but smile?

Em            C         G       D 
Re-enact your legendary tragedy
Em            C                  G     G
Do to me what has been done to you
Em               C                 G     D   
Is that the only point to all this misery
Em           C                 G      G  
Is there any reason I should cry?



Tap to rate this tab
# A B C D E F G H I J K L M N O P Q R S T U V W X Y Z