Song name
# A B C D E F G H I J K L M N O P Q R S T U V W X Y Z

Lou Bega - Mambo Number 5 tab

Lou Bega-Mambo N.5
Tabsmail-cifrastabs@zipmail.com.br
                     Lou Bega-Mambo N.5                                   

    (Fm     Eb)                                                                          
|--1-----------------|
|--1--------3--------|
|--1--------3--------|
|--------------------|
|--------------------|
|--------------------|                              
   Fm                  Eb                        
--------------------|-------------------|
--1--------3--------|--4----------------|
--1--------3--------|--3----------------|
--------------------|--3----------------|
--------------------|--5----------------|
--------------------|-------------------|
              Fm                     Eb                                                
--1-----------------|--------------------|-------------------|
--1--------3--------|--1--------3--------|--4----------------|
--1-----------------|--------------------|--3----------------|
--------------------|--------------------|--3----------------|
--------------------|--------------------|--5----------------|
--------------------|--------------------|-------------------|

    D#          Fm        Eb                                                         
|--------------------|--------------------|
|--6--------3--------|--1--------3--------|
|--5--------3--------|--1--------3--------|
|--6-----------------|--------------------|
|--------------------|--------------------|
|--------------------|--------------------|
                                                             


TabsMail...
http://tabsmail.8m.com
!Exclusive-TabsMail!
                                                                            


Tap to rate this tab
# A B C D E F G H I J K L M N O P Q R S T U V W X Y Z