Song name
# A B C D E F G H I J K L M N O P Q R S T U V W X Y Z

Lou Gramm - Midnight Blue tab

Midnight Blue
Lou Gramm

Tabbed by Baddguitar
Based on Video by DSilvergun:   https://www.youtube.com/watch?v=MDCycwwda3E

Main Riff:

|------------------------------------------------------------------|
|--5-----6---------5-----6---------6-----3---------6-----3-----5-3-|
|--5-----5---------5-----5---------5-----4---------3-----4-----4-4-|
|--5-----5---------5-----5---------3-----5---------3-----5-----5-5-|
|--3-----3---------3-----3-----------------------------------------|
|------------------------------------------------------------------|
   1 + 2 + 3 + 4 + 1 + 2 + 3 + 4 + 1 + 2 + 3 + 4 + 1 + 2 + 3 + 4 +

Chorus Riff:

|--0-----1---0---0---1-------------1-----3---------1-----3---3---3-|
|--1-----1---1---3---1-------------1-----3---------1-----3---3---3-|
|--0-----0---0---0---0-------------2-----4---------2-----4---4---4-|
|--2-----2---2---2---2-------------3-----5---------3-----5---5---5-|
|--3-----3---3---3---3-------------3-----5---------3-----5---5---5-|
|----------------------------------1-----3---------1-----3---3---3-|
   1 + 2 + 3 + 4 + 1 + 2 + 3 + 4 + 1 + 2 + 3 + 4 + 1 + 2 + 3 + 4 +

|--0-----1---0---0---1-------------1-----3-------------------------|
|--1-----1---1---3---1-------------1-----3---------1---3---1---3---|
|--0-----0---0---0---0-------------2-----4---------2---2---2---0---|
|--2-----2---2---2---2-------------3-----5---------3---3---3---0---|
|--3-----3---3---3---3-------------3-----5---------0---0---0---2---|
|----------------------------------1-----3-------------------------|
   1 + 2 + 3 + 4 + 1 + 2 + 3 + 4 + 1 + 2 + 3 + 4 + 1 + 2 + 3 + 4 +



Intro:
[Main Riff X 1]

Verse 1:  [Play Main Riff during each line]

Ain't got no regrets.   And I ain't losin' track of    which way I'm going.   Ain't 
gonna double back no
Don't want no misplay.   Put on no display.   An angel? no!   But I know my way,
oh yeah,                 oh...

Verse 2: [Play Main Riff during each line]

I used follow,  yeah, that's true.   But my following days are over.   Now I just gotta 
follow through and...
I remember what my father said.  He said "Son, life is simple".  It's either cherry red or...

Chorus:  [Play Chorus Riff during each line]

Midnight Blue...    Oh...
Midnight Blue...    Oh...

Verse 3: [Play Main Riff during each line]

You were the restless one   and you did not care  that I was the trouble boy  lookin' 
for a double dare
I won't apologize for the things I've done and said.  But when I win your heart,  I'm 
gonna paint it cherry red

Verse 4: [Play Main Riff during each line]

I don't want to talk about it what you do to me.  I can't live without it
and you might think that    it's much too soon    for us to go this far     into the

Chorus:  Play Chorus Riff during each line]

Midnight Blue...    Oh...
Midnight Blue...    Oh...

Verse 5: [Play Main Riff but Arpeggio instead of power strum]
Things could be different  but that'd be a shame, 'cause I'm the one who could feel the 
sun   right in the pouring rain
I won't say where  and I don't know when, but soon there's gonna come a day    I'll be 
back again

[Chorus Riff]
Yeah, I'll be back for you

[Chorus Riff]
You see, I'm saving up my love

Chorus Outro:  Play Chorus Riff during each line]
Midnight Blue...    Oh...
Into the Midnight Blue...    Oh...
Another Midnight Blue...    Oh...
We need this Midnight Blue...    Oh...
Into the Midnight Blue...    Oh...
Midnight Blue...    Oh...

[Fade]
Tap to rate this tab
 
# A B C D E F G H I J K L M N O P Q R S T U V W X Y Z