Song name
# A B C D E F G H I J K L M N O P Q R S T U V W X Y Z

Lou Reed And Metallica - The View tab

The View
(upcoming album): Lulu
Metallica & Lou Reed

tuning: D

I do not know if the tab is correct, and I could'nt figure out the solo, but I 
have listened to the song and tried my best. And in my opinion, I think it sounds pretty good !

|------------------------------------------|  \
|------------------------------------------|   \
|------------------------------------------|    \ x16
|--7--7-/9--9~~----------9~~------------7~~|    /
|--7--7-/9--9~~----------9~~--8~~--7~~--5~~|   /
|--5--5-/7--7~~----------7~~--8~~--7~~--5~~|  /

|------------------------------------------|
|------------------------------------------|
|------------------------------------------|
|--7--7-/9--9~~----------------------------|
|--7--7-/9--9~~----------------------------|
|--5--5-/7--7~~----------------------------|

|------------------------------------------| \
|------------------------------------------|  \
|--4-4-4-7--4-2--4----4--------------------|   \ x4
|--4-4-4-7--4-2--4-5--4-3--2---------------|   /
|--2-2-2-5--2-0--2-5--2-3--2---------------|  /
|------------------3----1--0---------------| /

|------------------------------------------|
|------------------------------------------|
|--4-4-4-7--4-2--4----4-------4~~----------|
|--4-4-4-7--4-2--4-5--4-3--2--4~~----------|
|--2-2-2-5--2-0--2-5--2-3--2--2~~----------|
|------------------3----1--0---------------|
_____________________________________________________

guitar 1
|---------------------------------------------|
|---------------------------------------------|
|---------------------------------------------|
|------------9~~------------7~~--7--7-/9--9~~-|
|------------9~~--8~~--7~~--5~~--7--7-/7--7~~-|
|------------7~~--8~~--7~~--5~~--5--5-/7--7~~-|

guitar 2
|---------------------------------------------|
|---------------------------------------------|
|------------7~~------------------------------|
|-----------------9~~-------------------------|
|---------------------------9~~--7~~--/9--9~~-|
|*pick slide*---------------------------------|
_____________________________________________________

|------------------------------------------|
|------------------------------------------|
|------------------------------------------|
|--9~~------------7~~----------------------|
|--9~~--8~~--7~~--5~~----------------------|
|--7~~--8~~--7~~--5~~----------------------|

|------------------------------------------|  \
|------------------------------------------|   \
|------------------------------------------|    \ x10
|--7--7-/9--9~~----------9~~------------7~~|    /
|--7--7-/9--9~~----------9~~--8~~--7~~--5~~|   /
|--5--5-/7--7~~----------7~~--8~~--7~~--5~~|  /

|------------------------------------------|
|------------------------------------------|
|------------------------------------------|
|--7--7-/9--9~~----------------------------|
|--7--7-/9--9~~----------------------------|
|--5--5-/7--7~~----------------------------|

|------------------------------------------| \
|------------------------------------------|  \
|--4-4-4-7--4-2--4----4--------------------|   \ x11
|--4-4-4-7--4-2--4-5--4-3--2---------------|   /
|--2-2-2-5--2-0--2-5--2-3--2---------------|  /
|------------------3----1--0---------------| /

|-----------------------------------------------| \
|-----------------------------------------------|  \
|-----------------------------------------------|   \ x3
|--3-3-3-6--6-2-2-2-5---------------------------|   /
|--3-3-3-6--6-2-2-2-5---------------------------|  /
|--1-1-1-4--4-0-0-0-3-<3>-<3>-<3>-<3><3><3><3>--| /

|-----------------------------------------------| \
|-----------------------------------------------|  \
|-----------------------------------------------|   \ x2
|--3-3-3-6--6-2-2-2-5--x----x----x----x----x----|   /
|--3-3-3-6--6-2-2-2-5--x----x----x----x----x----|  /
|--1-1-1-4--4-0-0-0-3--x----x----x----x----x----| /

|-----------------------------------------------|
|-----------------------------------------------|
|-----------------------------------------------|
|--3-3-3-6--6-2-2-2-5--x-------x-----x-----x---|
|--3-3-3-6--6-2-2-2-5--x-------x-----x-----x---|
|--1-1-1-4--4-0-0-0-3--x-------x-----x-----x---|

|-----------------------------------------------| \
|-----------------------------------------------|  \
|-----------------------------------------------|   \ x2
|--3-3-3-6--6-2-2-2-5---------------------------|   /
|--3-3-3-6--6-2-2-2-5---------------------------|  /
|--1-1-1-4--4-0-0-0-3-<3>-<3>-<3>-<3><3><3><3>--| /

|-----------------------------------------------|
|-----------------------------------------------|
|-----------------------------------------------|
|--3-3-3-6--6-2-2-2-5---------------------------|
|--3-3-3-6--6-2-2-2-5---------------------------|
|--1-1-1-4--4-0-0-0-3-<5>-<5>-<4>-<3><3><2><2>--|

|-----------------------------------------------| \
|-----------------------------------------------|  \
|-----------------------------------------------|   \ x2
|--3-3-3-6--6-2-2-2-5--x----x----x----x----x----|   /
|--3-3-3-6--6-2-2-2-5--x----x----x----x----x----|  /
|--1-1-1-4--4-0-0-0-3--x----x----x----x----x----| /

|------------------------------------------------|
|------------------------------------------------|
|---------------------------------------------4~~|
|--3-3-3-6--6-2-2-2-5--x-------x-----x-----x--4~~|
|--3-3-3-6--6-2-2-2-5--x-------x-----x-----x--2~~|
|--1-1-1-4--4-0-0-0-3--x-------x-----x-----x-----|

|------------------------------------------------|
|------------------------------------------------|
|------------------------------------------------|
|--x--x--9~~------------7~~--7--7-/9--9~~--------|
|--x--x--9~~--8~~--7~~--5~~--7--7-/9--9~~--------|
|--x--x--7~~--8~~--7~~--5~~--5--5-/7--7~~--------|

|------------------------------------------------|
|------------------------------------------------|
|------------------------------------------------|
|--x--x--9~~------------7~~--7~~---2--2~~--------|
|--x--x--9~~--8~~--7~~--5~~--7~~---2--2~~--------|
|--x--x--7~~--8~~--7~~--5~~--5~~---0--0~~--------|

Enjoy !
Tap to rate this tab
# A B C D E F G H I J K L M N O P Q R S T U V W X Y Z