Song name
# A B C D E F G H I J K L M N O P Q R S T U V W X Y Z

Lou Reed And Metallica - Dragon tab

Title: Dragon
Artist: Lou Reed & Metallica
Album: Lulu (2011)
Author: nokap@live.com.au


Track 1: Rhythm Guitar

+ = Sustained note

E|--------|---------------------|---------------------|---------------------|-------------------|
B|--------|---------------------|---------------------|---------------------|-------------------|
G|--------|---------------------|---------------------|---------------------|-------------------|
D|--------|-7----7----7----5----|-5----8----8+++++++++|+++++++++++++++++++++|+++++++++++++++++++|
A|--------|-7----7----7----5----|-5----8----8+++++++++|+++++++++++++++++++++++++++++++++++++++++|
E|--------|---------------------|---------------------|---------------------|-------------------|


E|---------------------|---------------------|---------------------|---------------------|
B|---------------------|---------------------|---------------------|---------------------|
G|---------------------|---------------------|---------------------|---------------------|
D|-7----7----7----5----|-5----8----8+++++++++++++++++++++++++++++++++++++++++++++++++++++|
A|-7----7----7----5----|-5----8----8+++++++++++++++++++++++++++++++++++++++++++++++++++++|
E|---------------------|---------------------|---------------------|---------------------|


E|---------------------|---------------------|---------------------|---------------------|
B|---------------------|---------------------|---------------------|---------------------|
G|---------------------|---------------------|---------------------|---------------------|
D|-7----7----7----5----|-5----8----8+++++++++++++++++++++++++++++++|-5+++++----4----4++++|
A|-7----7----7----5----|-5----8----8+++++++++++++++++++++++++++++++|-5+++++----4----4++++|
E|---------------------|---------------------|---------------------|---------------------|


E|---------------------|---------------------|---------------------|---------------------|
B|---------------------|---------------------|---------------------|---------------------|
G|---------------------|---------------------|---------------------|---------------------|
D|-4----4----4----4----|-4----4----4----4----|-4----4----4----5----|-4----5----4----5----|
A|-4----4----4----4----|-4----4----4----4----|-4----4----4----5----|-4----5----4----5----|
E|---------------------|---------------------|---------------------|---------------------|


E|---------------------|---------------------|---------------------|
B|---------------------|---------------------|---------------------|
G|---------------------|---------------------|---------------------|
D|-5----5----5----5----|-5----5----5----5----|---------------------|
A|-5----5----5----5----|-5----5----5----5----|---------------------|
E|---------------------|---------------------|---------------------|



Tap to rate this tab
 
# A B C D E F G H I J K L M N O P Q R S T U V W X Y Z