Song name
# A B C D E F G H I J K L M N O P Q R S T U V W X Y Z

Lou Reed And Metallica - Junior Dad tab

Junior Dad
Lou Reed & Metallica

D---------------------------------------------------------------|
A---------------------------------------------------------------|
F--------------------------------------------------2------------|
C---------------------------------------------------------------|
G-----5-5-5-7p5-5---5-5-5-7p5-5---5-5-5-7p5-5--0-4--4-0----7-7\-|
C---0-------------0-------------0-----------------------0--7-7\-|

D-------------------------------------|
A-------3-5-5/7-5-5/8--3--------------|
F-------------------------6---7-------|
C-------0-2-2/4-2-2/5--0--------------|
G-------------------------4---5--7-7\-|
C---0----------------------------7-7\-|

Those are the two main parts n stuff
Tap to rate this tab
# A B C D E F G H I J K L M N O P Q R S T U V W X Y Z