Song name
# A B C D E F G H I J K L M N O P Q R S T U V W X Y Z

Lou Rhodes - Treat Her Gently tab

LouRhodes.com

Treat Her Gently

Verus 1

e----------------       e--------------------|
B----------------       B--------------------|
G------2-----2---       G-------2------2-----|
D----2-----2---2-       D-----2------2---2---|
A--0-----0-------       A---3------2---------|
E---------------- x3    E--------------------|  x1

Something that you said just stuck in my throat
Made me fall apart and wrythe in pain
Could it be the one I love could hate me so
And will I find the love I lost again

e---------------|
B---------------|
G------0--------|
D----2---2------|
A--0------------|
E---------------|

Chorus 1

All in a day
And the cruel things we say
Love runs away
          D
If you don't

    D
e--2----------------|
B--3----1-----------|
G--2----2-----------|
D-------3-----------|
A-------3-----------|
E-------------------|

Treat her gently, oh

Verus 2

e----------------       e--------------------|
B----------------       B--------------------|
G------2-----2---       G-------2------2-----|
D----2-----2---2-       D-----2------2---2---|
A--0-----0-------       A---3------2---------|
E---------------- x3    E--------------------|  x1

Sticks and stones will break my bones but now I know
Your words go so much deeper down inside
Now every dream we ever had has turned to stone
You'll never know the rivers that I cried

Chorus 2

All in a day
And the cruel things we say
Love runs away
          D
If you don't

    D
e--2----------------|
B--3----1-----------|
G--2----2-----------|
D-------3-----------|
A-------3-----------|
E-------------------|

Treat her gently, oh

All in a day yeah
And the cruel things we say
Love runs away
            D
If you don't
                        A
Treat her gently, oh
    D              A
e--2---------------|
B--3----1----2-----|
G--2----2----2-----|
D-------3----2-----|
A-------3----------|
E------------------|

End
Tap to rate this tab
 
# A B C D E F G H I J K L M N O P Q R S T U V W X Y Z