Song name
# A B C D E F G H I J K L M N O P Q R S T U V W X Y Z

Lou Rhodes - Icarus tab

Lou Rhodes - Icarus

Author note: Could be preferable to tune down to C and play with a capo on fret 2, since 
it's easier to get the thumb around the neck that way...

Verse/Intro:

Caution is not my middle Name...

F#|--------------|----------------|
C#|------------1-|------------3-1-|
A |--------0-----|--------0-------|
E |----2-3---3---|----2-3---3-----|
G |--------------|----------------|
D |--0-----------|--3-------------|

Chorus:

And I wan't to ask you darling, could we fly...?

F#|--------------|--------------|--------------|--------------|
C#|------------1-|------------1-|------------1-|------------1-|
A |--------0-----|--------0-----|--------0-----|--------0-----|
E |----2-3---3---|----2-3---3---|----2-3---3---|----2-3---3---|
G |--------------|--2-----------|--------------|--------------|
D |--2-----------|--------------|--0-----------|--0-----------|

'cos Looking in your eyes right now, nothing could be too high...

F#|--------------|--------------|--------------|
C#|------------1-|------------1-|------------1-|
A |--------0-----|--------0-----|--------0-----|
E |----2-3---3---|----2-3---3---|----2-3---3---|
G |--------------|--2-----------|--0-----------|
D |--2-----------|--------------|--------------|


Verse (And there's a kind of wisdom...)

Verse (All my soul's yearning comes back...)

Chorus (so what you saying baby?)

Verse x1

Chorus, slight variation

              Nothing could be too high...

F#|--------------|--------------|--------------|
C#|------------1-|------------1-|------------1-|
A |--------0-----|--------0-----|--------0-----|
E |----2-3---3---|----2-3---3---|----2-3---3---|
G |--------------|--2-----------|--4-----------|
D |--2-----------|--------------|--------------|


Chorus (normal) / Coda

====

This tab is an interpretation of the original work, published on A&G Records.
Tap to rate this tab
 
# A B C D E F G H I J K L M N O P Q R S T U V W X Y Z