Guitaretab - guitar tabs
Song name
# A B C D E F G H I J K L M N O P Q R S T U V W X Y Z

Loud Lucy - Ticking tab

-------------------------------------------------------------------------------
			    Ticking - Loud Lucy
-------------------------------------------------------------------------------
Tabbed by: Matt Frank
Email: mister_rocketpop@hotmail.com

Tuning: Standard

Verse
e|-------3-3-33-1-1-1-1-1-1-1-1----------------------------------------------|
B|1-1-11-3-3-33-3-3-3-3-3-3-3-3----------------------------------------------|
G|0-0-00-0-0-00-2-2-2-2-2-2-2-2----------------------------------------------|
D|2-2-22-0-0-00-0-0-0-0-0-0-0-0----------------------------------------------|
A|3-3-33-2-2-22--------------------------------------------------------------|
E|-------3-3-33--------------------------------------------------------------|
[ Tab from: http://www.guitaretab.com/l/loud-lucy/10759.html ]
Pre-Chorus
e|---------------------------------------------------------------------------|
B|---------------------------------------------------------------------------|
G|10-10-10-10-9-9-9-9---------10-10-10-10-9-9-9-9----------------------------|
D|10-10-10-10-9-9-9-9-5-55-55-10-10-10-10-9-9-9-9-3-33-33--------------------|
A|8--8--8--8--7-7-7-7-5-55-55-8--8--8--8--7-7-7-7-3-33-33--------------------|
E|------------0-0-0-0-3-33-33-------------0-0-0-0-1-11-11--------------------|

e|---------------------------------------------------------------------------|
B|---------------------------------------------------------------------------|
G|10-10-10-10-9-9-9-9---------10-10-10-10-9-9-9-9----------------------------|
D|10-10-10-10-9-9-9-9-5-55-55-10-10-10-10-9-9-9-9-3-3-3-3-3-3-3-3------------|
A|8--8--8--8--7-7-7-7-5-55-55-8--8--8--8--7-7-7-7-3-3-3-3-3-3-3-3------------|
E|------------0-0-0-0-3-33-33-------------0-0-0-0-1-1-1-1-1-1-1-1------------|

Chorus
e|---------------------------------------------------------------------------|
B|---------------------------------------------------------------------------|
G|5-5-5-5-5-5-5-5---------------------------------5-5-5-5-5-5-5-5------------|
D|5-5-5-5-5-5-5-5-5-5-5-5-5-5-5-5-3-3-3-3-3-3-3-3-5-5-5-5-5-5-5-5------------|
A|3-3-3-3-3-3-3-3-5-5-5-5-5-5-5-5-3-3-3-3-3-3-3-3-3-3-3-3-3-3-3-3------------|
E|----------------3-3-3-3-3-3-3-3-1-1-1-1-1-1-1-1----------------------------|

Solo (Played over D5, A5, G5)
Related for Ticking tab