Guitaretab - guitar tabs
Song name
# A B C D E F G H I J K L M N O P Q R S T U V W X Y Z

Loud Lucy - Over Me tab

-------------------------------------------------------------------------------
			     Over Me - Loud Lucy
-------------------------------------------------------------------------------
Tabbed by: Matt Frank - 02.03.05
Email: mister_rocketpop@hotmail.com

Tuning: Standard

I found one tab for this awesome band. One tab. Which was wrong anyway. So if your
a Loud Lucy fan, look for their whole album 'Breathe' very soon.

Intro
e|3-3-xxxx-3-3-xxxx----------------------------------------------------------|
B|0-0-xxxx-0-0-xxxx----------------------------------------------------------|
G|0-0-xxxx-0-0-xxxx-12-11-12---12---12-11-12-11------------------------------|
D|0-0-xxxx-0-0-xxxx----------------------------------------------------------|
A|2-2-xxxx-x-x-xxxx----------------------------------------------------------|
E|3-3-xxxx-2-2-xxxx----------------------------------------------------------|

e|3-3-xxxx-3-3-xxxx----------------------------------------------------------|
B|0-0-xxxx-0-0-xxxx----------------------------------------------------------|
G|0-0-xxxx-0-0-xxxx-12-11-12---14b-------------------------------------------|
D|0-0-xxxx-0-0-xxxx----------------------------------------------------------|
A|2-2-xxxx-x-x-xxxx----------------------------------------------------------|
E|3-3-xxxx-2-2-xxxx----------------------------------------------------------|

e|3-3-xxxx-3-3-xxxx-0-00-0-00-0-00-0-00--------------------------------------|
B|0-0-xxxx-0-0-xxxx-1-11-1-11-1-11-1-11--------------------------------------|
G|0-0-xxxx-0-0-xxxx-0-00-0-00-0-00-0-00--------------------------------------|
D|0-0-xxxx-0-0-xxxx-2-22-0-00-2-22-0-00--------------------------------------|
A|2-2-xxxx-x-x-xxxx-3-33-2-22-3-33-2-22--------------------------------------|
E|3-3-xxxx-2-2-xxxx----------------------------------------------------------|
[ Tab from: http://www.guitaretab.com/l/loud-lucy/134664.html ]
e|3-3-xxxx-3-3-xxxx----------------------------------------------------------|
B|0-0-xxxx-0-0-xxxx----------------------------------------------------------|
G|0-0-xxxx-0-0-xxxx-12-11-12---12--------------------------------------------|
D|0-0-xxxx-0-0-xxxx----------------------------------------------------------|
A|2-2-xxxx-x-x-xxxx----------------------------------------------------------|
E|3-3-xxxx-2-2-xxxx----------------------------------------------------------|

Verse 
e|3-3-xxxx-3-3-xxxx----------------------------------------------------------|
B|0-0-xxxx-0-0-xxxx----------------------------------------------------------|
G|0-0-xxxx-0-0-xxxx-12-11-12---12--------------------------------------------|
D|0-0-xxxx-0-0-xxxx----------------------------------------------------------|
A|2-2-xxxx-x-x-xxxx----------------------------------------------------------|
E|3-3-xxxx-2-2-xxxx----------------------------------------------------------|

Chorus 
e|333333333333-00000000-00000000---------------------------------------------|
B|000000000000-00000000-11111111---------------------------------------------|
G|000000000000-00000000-00000000---------------------------------------------|
D|000000000000-22222222-22222222---------------------------------------------|
A|222222222222-22222222-33333333---------------------------------------------|
E|333333333333-00000000------------------------------------------------------|

Chorus 
e|00000000-00000000----------------------------------------------------------|
B|11111111-11111111----------------------------------------------------------|
G|00000000-22222222----------------------------------------------------------|
D|22222222-22222222----------------------------------------------------------|
A|33333333-00000000----------------------------------------------------------|
E|---------------------------------------------------------------------------|

Structure
Intro (1x)
Verse (4x)
Chorus #1 (2x)
Chorus #2 (1x)
Intro (1x)
Verse (4x)
Chorus #1 (2x)
Chorus #2 (1x)
Solo (E or G around the 12th fret)
Chorus #1 (2x)
Chorus #2 (1x)
Chorus #1 (2x)
Chorus #2 (1x)
===============================================================================
Related for Over Me tab