Guitaretab - guitar tabs
Song name
# A B C D E F G H I J K L M N O P Q R S T U V W X Y Z

Loud Silence - Drifting Away tab

Loud Silence     Drifting Away.
 Tabbed by Richard DeaditeBeast2000@aol.com.
  
this is a song my band and i came up with. Its desently easy.

b=bend
h=hammer on
p=pull off
/=slide down
\\=slide up
x=harmonic

Verse 1
e:----------------------------:----------------------:
b:----------------------------:----------------------:
g:----------------------------:----------------------:
d:----------------------------:----------------------:
a:-4-4h5-4-2-4-4h5-4-2--------:-0-2-4-5-4-2-0--------:
E:-2---------2----------------:----------------------:
          
Verse 2
e:----------------------------------------------:
b:----------------------------------------------:
g:-------------------8-9-10-9-8-----------------:
d:-4/9-9-10-------8-9----------9-8-------7/8----:
a:-2/7-7-8-----8-9----------------9-8----7/8-5b-:
E:-2/7-7-8--8-9----------------------9-8-5/6----:
[ Tab from: http://www.guitaretab.com/l/loud-silence/27255.html ]
Chorus
e:-0--------------------0---:
b:-0--------------------0---:
g:-0----0---------------0---:
d:-2---2-3-----1------6-2---:
a:-2--2---3---3-4-5-6-4-2---:
E:-0-0-----0-1--2-3-4---0---:

Verse 1

When done playing verse one for second time go right into solo.

Solo.

e:----------------9p8h10---------------7---------
b:--------------10------9-------------6-8b-7-6---
g:------------11---------5b-6b-------5--------5b-
b:----------12----------------3h4p3-4------------
a:----9h10p9-------------------------------------
E:-2/9-------------------------------------------

Chorus
Chorus

Outro

e:--------------------------------------------------:
b:--------------------------------------------------:
g:---------------5------------------8-------5-------:
d:---3---3--3---3-3-----6---6--6---6-6-----3--------:
a:----4-4-4--4-4---4-----7-7-7--7-7---7---4--4-4-4-4:
E:-2---2---2--2-----2/5---5---5--5-----5\\2---2-2-2-2:

thats it. If you have any questions feel free to e-mail me. L8er 
:: Ultimate Guitar Archive :: 
http://www.ultimate-guitar.com 



Related for Drifting Away tab