Song name
# A B C D E F G H I J K L M N O P Q R S T U V W X Y Z

Loudblast - Taste Me tab

"Taste Me" by LOUDBLAST from the album Fragments
Transcription : Julien Lincy 
Email me for any question or correction at  : julien.lincy@caramail.com 

#Tuning : down two whole step (C,G,Db,B,F,C)
#Effects :    ~   tremolo
              PM  palm mute	      
	      A.H artificial harmonic
	      /   slide
#Use a heavy distortion to play this song

Here's my favourite from Loudblast :

Riff 1
			       A.H.				A.H. (last time, don't play 
|-------------------------------------------------------------------- the A.H., just play the note)
|--------------------------------------------------------------------
|--------------------------------------------------------------------  
|--------------------------------------------------------------------   
|--------------------------------------------------------------------   
|--0---0-2-3-0-2-3-0---0-2-3-0-3----0---2-3-0-0-2-3-0---0-2-3-0-3---- 
     
Riff 2

|------------------------------------- 
|-------------------------------------
|-------------------------------------  
|-------------------------------------   
|-------------------------------------  
|-------------------------------------
|--0---0-2-3-0-2-3-0---0-2-3-0-3~--0--

Riff 3

|------------------------------------- 
|-------------------------------------
|-------------------------------------  
|-------------------------------------   
|-------------------------------------
|-------------------------------------
|--0---0-2-3-0-2-3-0---0-2-3-0-3-2-0--

Riff 4 

   let ring			let ring
|--------------------------------------------------------------------
|--------------------------------------------------------------------  
|--------------12-12-12-12--------------------12---------------------   
|--2------------x--x--x--x-------2-------------x--------------------- 
|--2-----------10-10-10-10-------2------------10---------------------   
|--0-----------------------------0----------------------------------- 

Riff 5 (i'm not really sure of that riff) 

|-----------------------------------------------------------------------
|-----------------------------------------------------------------------
|------------13----------13---13------12----------12----12-/-13-13------
|-------------x-----------x----x-------x-----------x-----x-/--x--x------
|------------11----------11---11------10----------10----10-/-11-11------
|---0-0-0-0------0-0-0-0----------0-0-----0-0-0-0-----0-----------------
PM:........      .......          ...     .......     ..

Riff 6 (i'm not really sure of that riff too : it's the same as riff 5) 

|-----------------------------------------------------------------------
|-----------------------------------------------------------------------
|------------12----------12---12------11----------11----11-/-12-12------
|-------------x-----------x----x-------x-----------x-----x-/--x--x------
|------------10----------10---10-------9-----------9-----9-/-10-10------
|---0-0-0-0------0-0-0-0----------0-0-----0-0-0-0-----0-----------------
PM:........      .......          ...     .......     ..

Riff 7

|-----------------------------------------------------------------------
|-----------------------------------------------------------------------
|-----------------------------------------------------------------------
|-----------------------------------------------------------------------
|--2-2-2--2-2-2--2-2-2--2-2-2--------------------------------------------
|--2-2-2--2-2-2--2-2-2--2-2-2--------------------------------------------
|--0-0-0--0-0-0--0-0-0--0-0-0--------------------------------------------
PM:.....  .....  .....  .....

Riff 8

|------------------------------------------------------------------------
|------------------------------------------------------------------------
|------------------------------------------------------------------------
|------------------------------------------------------------------------
|-----------9-9-10-10----------9-9-10-10---------5-5-9-9---------5-5-9-9-
|--0-0-0-0-------------0-0-0-0-----------0-0-0-0---------0-0-0-0---------

Riff 9 (Interlude begining -> slow)

|------------------------------------------------------------------------
|------------------------------------------------------------------------
|------------------------------------------------------------------------
|------------------------------------------------------------------------
|------------------------------------------------------------------------
|--0--0--2--3--0--0--2--3--5--5--5--5--3-3--2-2--------------------------

Riff 11 : i didn't catch the end of the interlude (hard to hear what he plays)


Listen to the song to know when each riff is played

Enjoy french death metal!!!!!!!!!!
Tap to rate this tab
 
# A B C D E F G H I J K L M N O P Q R S T U V W X Y Z