Guitaretab - guitar tabs
Song name
# A B C D E F G H I J K L M N O P Q R S T U V W X Y Z
Home / L / Loudmouth / Fly tab

Loudmouth - Fly tab

Loudmouth- Fly

Drop D Tuning                           3 times                    4th time
e:-----------------------------------------------------------|-----------------------|
B:-----------------------------------------------------------|-----------------------|
G:-----------------------------------------------------4-4-4-|-4-4-4-----------------|
D:-----------------------------------------------------4-4-4-|-4-4-4---4-3-2---------|
A:-----------------------------------------------------2-2-2-|-2-2-2---------4-3-2---|
D:-0-0-0-3-0-0-5-6-5-3-5-3-0----5-6-5-3-5-3-0----3-5-0-------|-----------------------|
                        


                                                                      3
times
e:---------------------------------------------------|-------------------------------------|
B:---------------------------------------------------|-------------------------------------|
G:--4/-6-6-6-6--9-9-9-9-9-9---4/-6-6-6-6--9-11-9-4-4-|-2-2-2-2-----------4-4-4-4-----------|
D:--4/-6-6-6-6--9-9-9-9-9-9---4/-6-6-6-6--9-11-9-4-4-|-2-2-2-2--2-2-2-2--4-4-4-4--0-0-0-0--|
A:--2/-4-4-4-4--7-7-7-7-7-7---2/-4-4-4-4--7--9-7-2-2-|-0-0-0-0--2-2-2-2--2-2-2-2--0-0-0-0--|
D:---------------------------------------------------|----------2-2-2-2-----------0-0-0-0--|


                        
                        4th time
e:-----------------------------------------------| I don't know the
solo YET but I am working on it.
B:-----------------------------------------------|
G:-2-2-2-2-----------4-4-4-4-4-4-4---------------|
D:-2-2-2-2--2-2-2-2--4-4-4-4-4-4-4---4-3-2-------|
A:-0-0-0-0--2-2-2-2--2-2-2-2-2-2-2---------4-3-2-|
D:----------2-2-2-2------------------------------|




[ Tab from: http://www.guitaretab.com/l/loudmouth/119140.html ]
Related for Fly tab