Guitaretab - guitar tabs
Song name
# A B C D E F G H I J K L M N O P Q R S T U V W X Y Z

Loudmouth - Blink Of An Eye tab

e|------------------------------------------|
B|------------------------------------------|
G|------------------------------------------|
D|-7-----------7-7-7/6-6-7-----------7-6-5--|
A|-7-5h7p5-----7-7-7/6-6-7-5h7p5-----7-6-5--|
E|-5-------7p5-5-5-5/4-4-5-------7p5-5-4-3--|
                       .
e|------------------------------------------|
B|------------------------------------------|
G|------------------------------------------|
D|-7-----------7-7-7/6-6-7-----------7-6-5--|
A|-7-5h7p5-----7-7-7/6-6-7-5h7p5-----7-6-5--|
E|-5-------7p5-5-5-5/4-4-5-------7p5-5-4-3--|
                       .                      
Repeat this through the song until you get to the chord progressions and palm mutes.
Pretty easy stuff.

Legend:
. - palm mute
/ - slide down
h - hammer on
p - pull off

Great song from the Silent Thunder II computer game. 
Enjoy.
[ Tab from: http://www.guitaretab.com/l/loudmouth/53831.html ]
Related for Blink Of An Eye tab