Guitaretab - guitar tabs
Song name
# A B C D E F G H I J K L M N O P Q R S T U V W X Y Z

Loudness - Theme Of Loudness tab

#----------------------------------PLEASE NOTE---------------------------------#
#This file is the author's own work and represents their interpretation of the #
#song. You may only use this file for private study, scholarship, or research. #
#------------------------------------------------------------------------------##
 Theme of Loudness - Loudness - Law of Devil's Land dd

                        x2                 F#                       x2
 +------------------------+---------------------------------------------|
 |------------------------|----------------|--|--|=|--[-|-]-1st time----|
 |---------------------7--|----------------|--|--|-|--[-|-]-only--------|
 |-------------------5---*|----------------|--|--|-|--[-|-]-------------|
 |---4-5-7-5-4-----5------|---2-3-5-3-2----/--/--/-/--[-/-]-------------|
 +-5-----------5-3--------+-3-----------3-------------------------------|
[ Tab from: http://www.guitaretab.com/l/loudness/10758.html ]
    B     D     G     | 1. A    | 2.
 +--------------------|---------+--------------------------------------------|
 |--|--|--|--|--|--|--|-|-------|--------------------------------------------|
 |--|--|--|--|--|--|--|-|-------|--------------------------------------------|
 |--|--|--|--|--|--|--|-|-------|-----------------------------2-0-2-4-2-4----|
 |--/--/--/--/--/--/--|-/--5-4--|-0-0-0-0-0-0-0-0-1-2-4-5-4-5----------------|
 +--------------------+---------+--------------------------------------------|

    D     A     E     Bm    D     A             D  A  D  A  D  A  D  A x4
 +-------------------------------------------------------------------------|
 |--|--|--|--|--|--|--|--|--|--|--|--|----------|--|--|--|--|--|--|--|-----|
 |--|--|--|--|--|--|--|--|--|--|--|--|--------7-|--|--|--|--|--|--|--|-----|
 |--|--|--|--|--|--|--|--|--|--|--|--|------5---|--|--|--|--|--|--|--|-----|
 |--/--/--/--/--/--/--/--/--/--/--/--/----5-----/--/--/--/--/--/--/--/-----|
 +--------------------------------------3----------------------------------|

                    x2   h   str noise.
 +--------------------+-------------|
 |--------------------|--5\---------|
 |-------------------*|----\--------|
 |-------4-2---------*|-----\-------|
 |---2-5-----5-4------|------x------|
 +-3-------------5-0--+-------------|
Related for Theme Of Loudness tab