Guitaretab - guitar tabs
Song name
# A B C D E F G H I J K L M N O P Q R S T U V W X Y Z

Loudness - Crazy Night tab

-----------------------------Loudness---------------------------------------
                           "Crazy Night"

Tabbed By Anival a.k.a Tricky.

[ Tab from: http://www.guitaretab.com/l/loudness/97717.html ]
repeat intro 6x
----------------------------------------------------------------------------]
----------------------------------------------------------------------------]
----------------------------------------------------------------------------]
---2---------4--------------------------------------------------------------]
---0--4-4-4--2--4-4-4--2--4--5-4--2-----------------------------------------]
------2-2-2-----2-2-2--0--2--3-2--0-----------------------------------------]
repeat the rest 2x
----------------------------------------------------------------------------|
----------------------------------------------------------------------------|
----------------------------------------------------------2---------4-------|
---2-----------------2-----------------2--------4---------2----2----4-------|
---0--4-4-4-2-4-4-4--0--4-4-4-2-4-4-4--0--4-4-4-2-4-4-4---0----2----2-------|
------2-2-2-0-2-2-2-----2-2-2-0-2-2-2-----2-2-2---2-2-2--------0------------|

----------------------------------------------------------------------------|
----------------------------------------------------------------------------|
----------------------------------------------------------------------------|
------------------------------------2--------4------------------------------|
--7-----9-----7-----9-----7---------0--4-4-4-2-4-4-4--2--4-5--4--2----------|
--5-----7-----5-----7-----5---4--------2-2-2---2-2-2--0--2-3--2--0----------|

----------------------------------------------------------------------------]
----------------------------------------------------------------------------]
----------------------------------------------------------------------------]
---2---------4--------------------------------------------------------------]
---0--4-4-4--2--4-4-4--2--4--5-4--2-----------------------------------------]
------2-2-2-----2-2-2--0--2--3-2--0-----------------------------------------]


well thats all i know. enjoy though.
I'm pretty sure some of you could figure out the rest.
Related for Crazy Night tab