Guitaretab - guitar tabs
Song name
# A B C D E F G H I J K L M N O P Q R S T U V W X Y Z

Loudness - Heavy Chains tab

                        Loudness
                     "Heavy Chains"

Tabbed By Anival A.k.a
this is very accurate i think. so enjoy.


gtr 1.   clean guitar. let ring.
----------2--------------------------------0-----------------------------------|
-------5----5----------------------------3---3----------3---------7------------|
-----4--------4---------0---0----------0-------0------4----------7-------------|
---2----------------------4---4------2--------------4----------7---------------|
----------------------2---------2--3--------------2--------5/7-----------------|
------------------0-3----------------------------------------------------------|

gtr2:intro solo:     play at end of clean gtr intro right at the second time clean gtr its played.
-------------------------------------------------------------------------------|
-(12)----12------------12------------12----------------------------------------|
-----14------(12)--14------(12)--14------14--12-11--11bh--9------11-12-14-14bf-|
------------------------------------------------------------9/14---------------|
-------------------------------------------------------------------------------|
-------------------------------------------------------------------------------|

gtr 1.   clean guitar. let ring.
----------2--------------------------------0-----------------------------------|
-------5----5----------------------------3---3----------3---------7------------|
-----4--------4---------0---0----------0-------0------4----------7-------------|
---2----------------------4---4------2--------------4----------7---------------|
----------------------2---------2--3--------------2--------5/7-----------------|
------------------0-3----------------------------------------------------------|
gtr 2.
----------------------------14bh---------------------------------------------|
----------------------------------15-12--------------------------------------|
--12-12h14--14bf--12-12h14--------------14-12-(11)---------------------------|
----------------------------------------------------(14)---------------------|
-----------------------------------------------------------------------------|
-----------------------------------------------------------------------------|

gtr 1.   clean guitar. let ring.
----------2--------------------------------0------------------------------------|
-------5----5----------------------------3---3----------3---------7-------------|
-----4--------4---------0---0----------0-------0------4----------7--------------|
---2----------------------4---4------2--------------4----------7----------------|
----------------------2---------2--3--------------2--------5/7------------------|
------------------0-3-----------------------------------------------------------|

gtr 1.   clean guitar. let ring.
----------2--------------------------------0------------------------------------|
-------5----5----------------------------3---3----------3---------7-------------|
-----4--------4---------0---0----------0-------0------4----------7--------------|
---2----------------------4---4------2--------------4----------7----------------|
----------------------2---------2--3--------------2--------5/7------------------|
------------------0-3-----------------------------------------------------------|

gtr 1.   clean guitar. let ring.
----------2--------------------------------0------------------------------------|
-------5----5----------------------------3---3----------3---------7-------------|
-----4--------4---------0---0----------0-------0------4----------7--------------|
---2----------------------4---4------2--------------4----------7----------------|
----------------------2---------2--3--------------2--------5/7------------------|
------------------0-3-----------------------------------------------------------|

gtr 1.   clean guitar. let ring.
----------2--------------------------------0----------------------------(0)-----|
-------5----5----------------------------3---3----------3---------7-----(0)-----|
-----4--------4---------0---0----------0-------0------4----------7------(0)-----|
---2----------------------4---4------2--------------4----------7--------(2)-----|
----------------------2---------2--3--------------2--------5/7----------(2)-----|
------------------0-3---------------------------------------------------(0)-----|

gtr2.
-----------------------------------------------------------------------------|
-----------------------------------------------------------------------------|
--5-5--7--9---------------------------7--9-----------------------------------|
--5-5--7--9---------------------------7--9-----------------------------------|
--3-3--5--7---------------------------5--7-----------------------------------|
------------0-0--0--0-0--0--0-0--0--0------0-0--0--0-0--0--0-0--0--0---------|
[ Tab from: http://www.guitaretab.com/l/loudness/97744.html ]
gtr2.
-----------------------------------------------------------------------------|
-----------------------------------------------------------------------------|
--5-5--7--9---------------------------7--9-----------------------------------|
--5-5--7--9---------------------------7--9-----------------------------------|
--3-3--5--7---------------------------5--7-----------------------------------|
------------0-0--0--0-0--0--0-0--0--0------0-0--0--0-0--0--0-0--0--0---------|

gtr1.2nd solo.
-----------------------------------------------------------------------------|
-17-17-15----17-17-15----17-17-17bf---17-------------------------------------|
----------16----------15-----------------------------------------------------|
-----------------------------------------------------------------------------|
-----------------------------------------------------------------------------|
-----------------------------------------------------------------------------|

gtr2.
----------------------------------------------------------------------------|
----------------------------------------------------------------------------|
--5-5--7--9-------9-------9-------9-----------------------------------------|
--5-5--7--9-------9-------9-------9--------5-------5-------5-------5--------|
--3-3--5--7-------7-------7-------7--------5-------5-------5-------5--------|
------------0-0-0---0-0-0---0-0-0----3-3-3-3-3-3-3-3-3-3-3-3-3-3-3-3-3-3-3--|

gtr2.
---------------------------------------------------------------------------|
---------------------------------------------------------------------------|
--5-------5-------5-------5-------4-------4-------7-------7----------------|
--5-------5-------5-------5-------4-------4-------7-------7----------------|
--3-3-3-3-3-3-3-3-3-3-3-3-3-3-3-3-2-2-2-2-2-2-2-2-5-5-5-5-5-5-5-5-5--------|
---------------------------------------------------------------------------|

gr2.
-----------------------------------------------------------------------|
-----------------------------------------------------------------------|
-----9-------9-------9-------9-----------------------------------------|
-----9-------9-------9-------9--------5-------5-------5-------5--------|
-----7-------7-------7-------7--------5-------5-------5-------5--------|
-------0-0-0---0-0-0---0-0-0----3-3-3-3-3-3-3-3-3-3-3-3-3-3-3-3-3-3-3--|

gtr2.
--------------------------------------------------------------------|
--------------------------------------------------------------------|
--5-------5-------5-------5-------4-------4-------7-----------------|
--5-------5-------5-------5-------4-------4-------7-----------------|
--3-3-3-3-3-3-3-3-3-3-3-3-3-3-3-3-2-2-2-2-2-2-2-2-5-5-5-5-----------|
--------------------------------------------------------------------|

gtr2.
----------------------------------------------------------------------|
----------------------------------------------------------------------|
--5-5--7--9---------------------------7--9----------------------------|
--5-5--7--9---------------------------7--9----------------------------|
--3-3--5--7---------------------------5--7----------------------------|
------------0-0--0--0-0--0--0-0--0--0------0-0--0--0-0--0--0-0--0--0--|

gtr2.
----------------------------------------------------------------------------------|
----------------------------------------------------------------------------------|
--5-5--7--9---------------------------7--9----------------------------------------|
--5-5--7--9---------------------------7--9----------------------------------------|
--3-3--5--7---------------------------5--7----------------------------------------|
------------0-0--0--0-0--0--0-0--0--0------0-0--0-----0--0-0-0----0--0-0-0--------|


gtr2.
----------------------------------------------------------------------------|
----------------------------------------------------------------------------|
--5-5--7--9-------9-------9-------9-----------------------------------------|
--5-5--7--9-------9-------9-------9--------5-------5-------5-------5--------|
--3-3--5--7-------7-------7-------7--------5-------5-------5-------5--------|
------------0-0-0---0-0-0---0-0-0----3-3-3-3-3-3-3-3-3-3-3-3-3-3-3-3-3-3-3--|

gtr2.
---------------------------------------------------------------------------|
---------------------------------------------------------------------------|
--5-------5-------5-------5-------4-------4-------7-------7----------------|
--5-------5-------5-------5-------4-------4-------7-------7----------------|
--3-3-3-3-3-3-3-3-3-3-3-3-3-3-3-3-2-2-2-2-2-2-2-2-5-5-5-5-5-5-5-5-5--------|
---------------------------------------------------------------------------|

gr2.
-----------------------------------------------------------------------|
-----------------------------------------------------------------------|
-----9-------9-------9-------9-----------------------------------------|
-----9-------9-------9-------9--------5-------5-------5-------5--------|
-----7-------7-------7-------7--------5-------5-------5-------5--------|
-------0-0-0---0-0-0---0-0-0----3-3-3-3-3-3-3-3-3-3-3-3-3-3-3-3-3-3-3--|

gtr2.
--------------------------------------------------------------------|
--------------------------------------------------------------------|
--5-------5-------5-------5-------4-------4-------7-----------------|
--5-------5-------5-------5-------4-------4-------7-----------------|
--3-3-3-3-3-3-3-3-3-3-3-3-3-3-3-3-2-2-2-2-2-2-2-2-5-5-5-5-----------|
--------------------------------------------------------------------|


well thats all i could do.enjoy.
Related for Heavy Chains tab
Heavy Chains chords by Loudness