Song name
# A B C D E F G H I J K L M N O P Q R S T U V W X Y Z

Loudon Wainwright Iii - Brunos Place tab

Artist: Loudon Wainwright III
Song: Bruon's Place
Album: Album 1

There's some next level stuff going on here, and there's no way this guy's human, or at 
no way he has only 10 fingers. This isn't all of the verses, but there are a lot and he 
a lot of words in. This also isn't the whole story behind any of it, but I'm pretty close.

Part 1:
   G           C     G       C/A#
e|-------------0--------------0--|
B|-------------1--------------3--|
G|-------------0--------------0--|
D|-------------2--------------2--|
A|-3--------3--3--3--------3--3--|
E|----0--3-----------0--3--------|

Part 2:

   A              A7    A7sus4
e|-0---0--0----0--0--0--0--------|
B|-2---2--2----2--2--2--3--------|
G|-2---2--2----2--0--0--0--------|
D|-2---2--2----2--2--2--2--------|
A|-0---0--0----0--0--0--0--------|
E|-------------------------------|

C              G          C
Seveeral stars who played guitar
C        G         C          G          C
were backed with feeling by a chopstick wielding
A                  A7 A7sus4
rhythm section


Cyclotron, Iris gone,
every scene without ending and your left thub is bending
northest

Chorus
G
Bruno has a lovely place, it's down on 7th street

Bruno has a lovely place, I go there and I eat
D                                     A      A7 A7sus4
But I don't eat meat, It's bad for my feet!
Tap to rate this tab
# A B C D E F G H I J K L M N O P Q R S T U V W X Y Z