Song name
# A B C D E F G H I J K L M N O P Q R S T U V W X Y Z

Louis Armstrong - What A Wonderful World tab

Help us improve GuitareTab! Take a short survey!
WHAT A WONDERFUL WORLD by LOUIS ARMSTRONG

Email me comments at pespaul.salerno@gmail.com


E------------------------------------------------------------|
B-----------------1------3---------1-------------------------|
G------------------------------------------------------------|
D-3-------3---3----------------------------------------------|
A----3-------------------------------------------------------|
E------------------------------------------------------------|

  I see trees of green, red roses too
E------------------------------------------------------------|
B------------------------------------------------------------|
G-3------------2-----0---------------------------------------|
D------------------------------3-----------------------------|
A------------------------------------------------------------|
E------------------------------------------------------------|

  I see them bloom, for me and you,

E------------------------------------------------------------|
B------------------------------------------------------------|
G---------------------------------------0----2---------------|
D-3--3---3----3--3--3-----3--3---3---2-----------------------|
A------------------------------------------------------------|
E------------------------------------------------------------|

  And I think to myself, What a  wonderful world.
Related for What A Wonderful World tab