Louis Armstrong - St James Infirmary tab

Trumpet to guitar transfer.  Easy intro.  Might eventually do solo and middle.

h - Hammer
p - pull off
\ - slide down

E---------------------------------------------------------------------|
B---------------------------------------------------15----------------|
G--------14---14-14-12--14-----------------14-14-14---15\14-----------|
D--12-15-------------------15p13p12---12-15---------------------------|
A---------------------------------------------------------------------|
E---------------------------------------------------------------------|

E---------------------------------------------------------------------|
B---------------------------------------------------------------------|
G--------14-14~---12~-14----------------------------------------------|
D--12-15-----------------15p13p12-----12-15--15-15\12-----------------|
A---------------------------------------------------------------------|
E---------------------------------------------------------------------|

E---------------------------------------------------------------------|
B---------------------------------------------------15-15141312-------|
G--14--14----14-14\12-14------------------14-14--14------------1514---|
D----15------------------15\1312--12-15-------------------------------|
A---------------------------------------------------------------------|
E---------------------------------------------------------------------|

E---------------------------------------------------------------------|
B---------------------------------------------------------------------|
G--14--14--14-14-12h14p12-14-----------12b-12------12---12------------|
D----15----------------------15-12------------15------15--12`---------|
A---------------------------------------------------------------------|
E---------------------------------------------------------------------|

This is my first tab.  If there are any problems send me an e-mail.  
   This is not possibly 100% correct, its my first tab.  Hope you enjoy it though.
Tap to rate this tab
 
# A B C D E F G H I J K L M N O P Q R S T U V W X Y Z