Louis Armstrong - Oh When The Saints tab

e--------------------|-------------------|------------------------------------|
b-------0----1----3--|------0----1----3--|-----0----1----3----0----------0----|
g-0------------------|-0-----------------|-0------------------------0--------2|
d--------------------|-------------------|------------------------------------|
a--------------------|-------------------|------------------------------------|
E--------------------|-------------------|------------------------------------|


e--------------------|---------------------------------|----------------------|
b-0------------------|-------0----3----3----3----1--1--|-------0----1----3----|
g-----2----0---------|--0------------------------------|--0-------------------|
d--------------------|---------------------------------|----------------------|
a--------------------|---------------------------------|----------------------|
E--------------------|---------------------------------|----------------------|

e--------------------|
b--0-----------------|
g------0----2-----0--|
d--------------------|
a--------------------|
E--------------------|
Tap to rate this tab
 
# A B C D E F G H I J K L M N O P Q R S T U V W X Y Z