Song name
# A B C D E F G H I J K L M N O P Q R S T U V W X Y Z

Louis Armstrong - What A Wonderful World tab

What A Wonderful World (Melody)
Louis Armstrong



Verse 1
E-|----------------|----------------|----------------|----------------|
B-|----------------|---------6------|-6/8--8--8--6---|---4--4--4--3---|
G-|----------------|---3--3---------|----------------|----------------|
D-|--------3--5----|----------------|----------------|----------------|
A-|----------------|----------------|----------------|----------------|
E-|----------------|----------------|----------------|----------------|

E-|----------------|----------------|----------------|----------------|
B-|----------------|----------------|-------------3--|----------------|
G-|---5--5--5--3---|3--3--3--3--3--3|-3---2-3--5-----|----------------|
D-|----------------|----------------|---5------------|----------------|
A-|----------------|----------------|----------------|----------------|
E-|----------------|----------------|----------------|----------------|


Verse 2
E-|----------------|----------------|----------------|----------------|
B-|----------------|---------6------|-6/8--8--8--6---|---4--4--4--3---|
G-|----------------|---3--3---------|----------------|----------------|
D-|--------3--5----|----------------|----------------|----------------|
A-|----------------|----------------|----------------|----------------|
E-|----------------|----------------|----------------|----------------|

E-|----------------|----------------|----------------|----------------|
B-|----------------|----------------|----------------|----------------|
G-|---5--5--5--3---|3--3--3--3--3--3|-3---2-3--5--3--|----------------|
D-|----------------|----------------|---5------------|----------------|
A-|----------------|----------------|----------------|----------------|
E-|----------------|----------------|----------------|----------------|


Bridge
E-|----------------|----------------|----------------|----------------|
B-|----------------|----------------|-4-3--3----3----|----------------|
G-|--------3--5--5-|5--5--5--5------|--------5-------|--------3--5--5-|
D-|----------------|------------3--3|----------------|----------------|
A-|----------------|----------------|----------------|----------------|
E-|----------------|----------------|----------------|----------------|

E-|----------------|----------------|----------------|----------------|
B-|----------------|-4-3--3----3----|---6-8---8-8-6--|---6-8---8-8-6--|
G-|5--5--5--5------|--------5-------|-7--------------|-7--------------|
D-|------------3--3|----------------|----------------|----------------|
A-|----------------|----------------|----------------|----------------|
E-|----------------|----------------|----------------|----------------|

E-|----------------|----------------|----------------|----------------|
B-|-8--8-8--6--6---|----------------|----------------|----------------|
G-|----------------|--8---7---5-----|----------------|----------------|
D-|----------------|----------------|----------------|----------------|
A-|----------------|----------------|----------------|----------------|
E-|----------------|----------------|----------------|----------------|


Verse 3
E-|----------------|----------------|----------------|----------------|
B-|----------------|---------6------|-6/8--8--8--6---|---4--4--4--3---|
G-|----------------|---3--3---------|----------------|----------------|
D-|--------3--5----|----------------|----------------|----------------|
A-|----------------|----------------|----------------|----------------|
E-|----------------|----------------|----------------|----------------|

E-|----------------|----------------|----------------|----------------|
B-|----------------|----------------|-------------3--|----------------|
G-|---5--5--5--3---|3--3--3--3--3--3|-3---2-3--5-----|----------------|
D-|----------------|----------------|---5------------|----------------|
A-|----------------|----------------|----------------|----------------|
E-|----------------|----------------|----------------|----------------|

E-|----------------|----------------|----------------|----------------|
B-|3--3--3---------|----------------|----------------|----------------|
G-|---------3--5--3|-3---2-3--5--3--|----------------|--3----7--------|
D-|----------------|---5------------|----------------|----------------|
A-|----------------|----------------|----------------|----------------|
E-|----------------|----------------|----------------|----------------|
Tap to rate this tab
 
# A B C D E F G H I J K L M N O P Q R S T U V W X Y Z