Song name
# A B C D E F G H I J K L M N O P Q R S T U V W X Y Z

Louis Armstrong - What A Wonderful World Acoustic tab

First attempt at a tab sheet!

Chords:

C   G   Am  Em  F  C  E7  Am  

Those are all the chords really!




e:---------------------------------|---------------------------------|
B:-----------------1---------------|-----------------------0---------|
G:-----------0----------0----------|-----------------0---------0-----|
D:------2-------------------2------|------------------------------0--|
A:---3-----------------------------|----------2----------------------|
E:---------------------------------|-----3---------------------------|


e:---------------------------------|---------------------------------|
B:-----------------1---------------|-----------------------0---------|
G:-----------0----------0----------|-----------------0---------0-----|
D:------2-------------------2------|------------------------------0--|
A:---3-----------------------------|----------2----------------------|
E:---------------------------------|-----3---------------------------|

Verse 1
e:---------------------------------|---------------------------------|
B:-----------------1---------------|-----------------------0---------|
G:-----------0----------0----------|-----------------0---------0-----|
D:------2-------------------2------|------------------------------0--|
A:---3-----------------------------|----------2----------------------|
E:---------------------------------|-----3---------------------------|


e:---------------------------------|---------------------------------|
B:---------------------1-----------|--------------------0------------|
G:--------------2-----------2------|--------------0---------0--------|
D:---------2-------------------2---|---------2------------------2----|
A:----0----------------------------|-----2---------------------------|
E:---------------------------------|---------------------------------|


e:----------------------1----------|----------------------0----------|
B:------------------1-------1------|-----------------1---------1-----|
G:-------------2----------------2--|-----------0------------------0--|
D:------3--------------------------|------2--------------------------|
A:---------------------------------|---------------------------------|
E:---------------------------------|---------------------------------|


e:---------------------------------|---------------------------------|
B:---------------------0-----------|------------------1--------------|
G:--------------1------------1-----|-------------2---------2---------|
D:--------0---------------------0--|--------2------------------2-----|
A:----2----------------------------|----0----------------------------|
E:---------------------------------|---------------------------------|



e:-------------------1-------------|------------------1--------------|
B:---------------1--------1--------|------------1----------1---------|
G:---------2------------------2----|-------2--------------------2----|
D:----3----------------------------|----3----------------------------|
A:---------------------------------|---------------------------------|
E:---------------------------------|---------------------------------|


e:---------------------------------|---------------------------------|
B:----------------------0----------|---------------------0-----------|
G:----------------0---------0------|---------------0----------0------|
D:------------------------------0--|------------------------------0--|
A:----------2----------------------|---------2-----------------------|
E:-----3---------------------------|-----3---------------------------|



e:---------------------------------|---------------------------------|
B:-------------------1-------------|----------------------1----------|
G:-------------0-----------0-------|----------------0----------0-----|
D:--------2--------------------2---|----------2-------------------2--|
A:---3-----------------------------|-----3---------------------------|
E:---------------------------------|---------------------------------|

e:---------------------------------|---------------------------------|
B:----------------------0----------|---------------------0-----------|
G:----------------0---------0------|---------------0----------0------|
D:------------------------------0--|------------------------------0--|
A:----------2----------------------|---------2-----------------------|
E:-----3---------------------------|-----3---------------------------|

(Repeat verse 1)

Bridge 

e:---------------------------------|---------------------------------|
B:----------------------0----------|---------------------0-----------|
G:----------------0---------0------|---------------0----------0------|
D:------------------------------0--|------------------------------0--|
A:----------2----------------------|---------2-----------------------|
E:-----3---------------------------|-----3---------------------------|

e:---------------------------------|---------------------------------|
B:-------------------1-------------|----------------------1----------|
G:-------------0-----------0-------|----------------0----------0-----|
D:--------2--------------------2---|----------2-------------------2--|
A:---3-----------------------------|-----3---------------------------|
E:---------------------------------|---------------------------------|

e:---------------------------------|---------------------------------|
B:----------------------0----------|---------------------0-----------|
G:----------------0---------0------|---------------0----------0------|
D:------------------------------0--|------------------------------0--|
A:----------2----------------------|---------2-----------------------|
E:-----3---------------------------|-----3---------------------------|

e:---------------------------------|---------------------------------|
B:-------------------1-------------|----------------------1----------|
G:-------------0-----------0-------|----------------0----------0-----|
D:--------2--------------------2---|----------2-------------------2--|
A:---3-----------------------------|-----3---------------------------|
E:---------------------------------|---------------------------------|

e:---------------------------------|---------------------------------|
B:---------------------1-----------|--------------------0------------|
G:--------------2-----------2------|--------------0---------0--------|
D:---------2-------------------2---|---------2------------------2----|
A:----0----------------------------|-----2---------------------------|
E:---------------------------------|---------------------------------|

e:---------------------------------|---------------------------------|
B:---------------------1-----------|--------------------0------------|
G:--------------2-----------2------|--------------0---------0--------|
D:---------2-------------------2---|---------2------------------2----|
A:----0----------------------------|-----2---------------------------|
E:---------------------------------|---------------------------------|

e:---------------------------------|---------------------------------|
B:---------------------1-----------|--------------------0------------|
G:--------------2-----------2------|--------------0---------0--------|
D:---------2-------------------2---|---------2------------------2----|
A:----0----------------------------|-----2---------------------------|
E:---------------------------------|---------------------------------|

e:---------------------------------|---------------------------------|
B:---------1------------------1----|---------------------0-----------|
G:-----2---------------0-----------|---------------0----------0------|
D:--3------------2-----------------|-----------------------------0---|
A:---------------------------------|--------2------------------------|
E:---------------------------------|-----3---------------------------|

Verse 2 plays the same way as verse 1, though the end is a little different.

Yes I think to myself...
e:-------------------1-------------|------------------1--------------|
B:---------------1--------1--------|------------1----------1---------|
G:---------2------------------2----|-------2--------------------2----|
D:----3----------------------------|----3----------------------------|
A:---------------------------------|---------------------------------|
E:---------------------------------|---------------------------------|

e:---------------------------------|---------------------------------|
B:----------------------0----------|---------------------0-----------|
G:----------------0---------0------|---------------0----------0------|
D:------------------------------0--|------------------------------0--|
A:----------2----------------------|---------2-----------------------|
E:-----3---------------------------|-----3---------------------------|


e:---------------------------------|---------------------------------|
B:-------------------1-------------|----------------------1----------|
G:-------------0-----------0-------|----------------0----------0-----|
D:--------2--------------------2---|----------2-------------------2--|
A:---3-----------------------------|-----3---------------------------|
E:---------------------------------|---------------------------------|


e:---------------------------------|----------------------------0----|
B:----------------------0----------|---------0------1-----0-----1----|
G:----------------0---------0------|------0----0------0-----0---0----|
D:------------------------------0--|-------------0------0----0--2----|
A:----------2----------------------|---2------------------------3----|
E:-----3---------------------------|-3-------------------------------|
Tap to rate this tab
# A B C D E F G H I J K L M N O P Q R S T U V W X Y Z