Guitaretab - guitar tabs
Song name
# A B C D E F G H I J K L M N O P Q R S T U V W X Y Z

Louis Xiv - Swarming Of The Bees tab

-------------------------------------------------------------------------------
			     Swarming of the Bees - Louis XIV
-------------------------------------------------------------------------------
Tabbed by: Sam Pollard
Email: Elpresidentes@hotmail.com

Tuning: Standard

Verse: This is played until the solo
    C#    E
e|--4-----7------------------------------------------------------------------|
B|--6-----9------------------------------------------------------------------|
G|--6-----9------------------------------------------------------------------|
D|--6-----9------------------------------------------------------------------|
A|--4-----7------------------------------------------------------------------|
E|---------------------------------------------------------------------------|

Solo: There are some 1/4 bends and a lot of vibrato. Or it could just be the distortion
[ Tab from: http://www.guitaretab.com/l/louis-xiv/104286.html ]
e|---------------------------7~------------------7---7-----------------------|
B|--9-9-9--7-9--7-9-7-9-----9--9-7-9---9---9~-7-9-9-9-9----------------------|
G|-------9-----9-------9-8-6----------9-9-6--9-----9---6---------------------|
D|---------------------------------------------------------------------------|
A|---------------------------------------------------------------------------|
E|---------------------------------------------------------------------------|

Bridge:
    C#      E       F   F#  G#  B   E        C# (4 measures)
e|--4--|----7-------8---9---11--14--7---------4------------------------------|
B|--6--|----9-------10--11--13--16--9---------6------------------------------|
G|--6--|----9-------10--11--13--16--9---------6------------------------------|
D|--6--|----9-------10--11--13--16--9---------6------------------------------|
A|--4--|----7-------8---9---11--14--7---------4------------------------------|
E|-----|---------------------------------------------------------------------|

Then verse until end

| /  slide up
| \  slide down
| h  hammer-on
| p  pull-off
| ~  vibrato
| +  harmonic
| x  Mute note
===============================================================================
Related for Swarming Of The Bees tab