Song name
# A B C D E F G H I J K L M N O P Q R S T U V W X Y Z

Louis Xiv - Grand Apartment tab

-------------------------------------------------------------------------------
	           The Grand Apartment - Louis XIV
-------------------------------------------------------------------------------
Tabbed by:gismo88
Email:john-escobar@sbcglobal.net

Tuning:Standard

Intro

e|---------------------------------------------------------------------------|
B|---------------------------------------------------------------------------|
G|---------------------------------------------------------------------------|
D|--2-----7--5-----5--7--x2--------------------------------------------------|
A|--0--3--5--3--3--3--5------------------------------------------------------|
E|-----1--------1------------------------------------------------------------|


e|-----------------------------------------------------------------------------|
B|-----------------------------------------------------------------------------|
G|-----------------------------------------------------------------------------|
D|-----------------------------------------------------------------------------|
A|--0----5--3-----3--5--x2-----------------------------------------------------|
E|-----1-------1---------------------------------------------------------------|
   Well a party just isnt a party...without me

e|-----------------------------------------------------------------------------|
B|-----------------------------------------------------------------------------|
G|-----------------------------------------------------------------------------|
D|-----------------------------------------------------------------------------|
A|--0----5--3-----3--5--x2-----------------------------------------------------|
E|-----1-------1---------------------------------------------------------------|
   So for all who gather, without...yours truly

e|-----------------------------------------------------------------------------|
B|-----------------------------------------------------------------------------|
G|-----------------------------------------------------------------------------|
D|-----------------------------------------------------------------------------|
A|--0----5--3-----3--5--x2-----------------------------------------------------|
E|-----1-------1---------------------------------------------------------------|
   I offer you all up my...sympathy

e|-----------------------------------------------------------------------------|
B|-----------------------------------------------------------------------------|
G|-----------------------------------------------------------------------------|
D|-----------------------------------------------------------------------------|
A|--0----5--3-----3--5--x2-----------------------------------------------------|
E|-----1-------1---------------------------------------------------------------|
   For all the girls that think they've...got me made

e|-----------------------------------------------------------------------------|
B|-----------------------------------------------------------------------------|
G|-----------------------------------------------------------------------------|
D|-----------------------------------------------------------------------------|
A|--0----5--3-----3--5--x2-----------------------------------------------------|
E|-----1-------1---------------------------------------------------------------|
   I'd be straight with you, but games...are just so fun to play

e|---------------------------------------------------------------------------|
B|---------------------------------------------------------------------------|
G|---------------------------------------------------------------------------|
D|--2-----7--5-----5--7--x2--------------------------------------------------|
A|--0--3--5--3--3--3--5------------------------------------------------------|
E|-----1--------1------------------------------------------------------------|
    My reflection of us...a lovely servitude

e|---------------------------------------------------------------------------|
B|---------------------------------------------------------------------------|
G|---------------------------------------------------------------------------|
D|--2-----7--5-----5--7--x2--------------------------------------------------|
A|--0--3--5--3--3--3--5------------------------------------------------------|
E|-----1--------1------------------------------------------------------------|
     While my body stabs you...with all my attitude

e|---------------------------------------------------------------------------|
B|---------------------------------------------------------------------------|
G|---------------------------------------------------------------------------|
D|--2-----7--5-----5--7--x2--------------------------------------------------|
A|--0--3--5--3--3--3--5------------------------------------------------------|
E|-----1--------1------------------------------------------------------------|
     And to all invited guests...of the grand apartment

e|---------------------------------------------------------------------------|
B|---------------------------------------------------------------------------|
G|---------------------------------------------------------------------------|
D|--2-----7--5-----5--7--x2--------------------------------------------------|
A|--0--3--5--3--3--3--5------------------------------------------------------|
E|-----1--------1------------------------------------------------------------|
     Well a party just isn't a party without me to start it

like this 4 the rest of the song
rest of the lyrics

is life without me merely interlude
while you dream of my body stabbing you
with all my attitude
and you're all invited guests
of the grand apartment

a party just isn't a party without me to start it

yeah.

my reflection of us
a lovely solitude
while my body stabs you
with all my attitude
and you're all invited guests
to the grand apartment

a party just isn't a party without me to start it.

| /  slide up
| \  slide down
| h  hammer-on
| p  pull-off
| ~  vibrato
| +  harmonic
| x  Mute note
===============================================================================
Tap to rate this tab
 
# A B C D E F G H I J K L M N O P Q R S T U V W X Y Z