Song name
# A B C D E F G H I J K L M N O P Q R S T U V W X Y Z

Louis Xiv - Finding Out True Love Is Blind tab

Louis XIV

Finding Out True Love is Blind


*Intro*

e|---------------------------------------|
B|---------------------------------------|
G|-------------------------5-5-7-7-------|
D|-------------------------5-5-7-7-------|
A|-------------3-------5---3-3-5-5-------| x4
E|-5-------3-------2---------------------|

                          |--Mute-|

e|---------------------------------------|
B|---------------------------------------|
G|---------------------------------------|
D|---------------------------------------|
A|---------------------------------------|
E|-5~~~~~~-------------------------------|


*Verse*


"Hey Chocolate Girl....."
e|-------------------------------------------------------|
B|----5--------------------------------------------------|
G|----6---------------5-5x--------7-7x----555-777--------|
D|-7~----777-x--5-5x--5-5x--4-4x--7-7x----555-777--------|
A|-7~----777-x--5-5x--3-3x--4-4x--5-5x----333-555--------|
E|-5~----555-x--3-3x--------2-2x-------------------------|
   A            G     C     F#    D       C   D
                                         "..Finding out true love is blind"


(most of what you need to play all of this song is there for you now)

(But when it gets to the "wind me up and make me crawl to you" part, its keyboard)
Tap to rate this tab
 
# A B C D E F G H I J K L M N O P Q R S T U V W X Y Z