Song name
# A B C D E F G H I J K L M N O P Q R S T U V W X Y Z

Louis Xiv - God Killed The Queen tab

Louis XIV

God Killed The Queen (SSX: On Tour)


by samqwe (my first Tab)


Main Riff:

Rythm:  1   2   3   4  +  1   2   3   4
    e|------------------------------------|
    B|------------------------------------|
    G|--10------------------------10------|
    D|--10--10--13----------------10------|
    A|--8---10--13----------------8--(8)--|
    E|------8---11(11)(13)----------------|


Rythm:  1   2   3   4  +  1   2   3   4
    e|------------------------------------|
    B|------------------------------------|
    G|--10----------------10------10------|
    D|--10--10--13--------10------10------|
    A|--8---10--13--------8-------8--(8)--|
    E|------8---11------------------------|


Rythm:  1   2   3   4  +  1   2   3   4
    e|------------------------------------|
    B|------------------------------------|
    G|--10------------------------10------|
    D|--10--10--13----------------10------|
    A|--8---10--13----------------8--(8)--|
    E|------8---11(11)(13)----------------|


Rythm:  1   2   3   4  +  1   2   3   4
    e|------------------------------------|
    B|------------------------------------|
    G|--10----------------10------10------|
    D|--10--10--13--------10------10------|
    A|--8---10--13--------8-------8--(8)--|
    E|------8---11(11)(13)----------------|


Refrain (Part one):

Rythm:  1   2   3   4  +  1   2   3   4  +
    e|--------------------------------------|
    B|--------------------------------------|
    G|--10----------------10----------------|
    D|--10------10--------10------10--------| 2x
    A|--8-------10-(8)----8-------10-(6)(8)-|
    E|----------8-----------------8---------|


Refrain (Part two):

Rythm: 1 + 2 + 3 + 4 + 1   2   3   4
    e|---------------------------------|
    B|---------------------------------|
    G|---------------------------------|
    D|-6-6-6-6-6-6-6-6-let-ring--------|
    A|-6-6-6-6-6-6-6-6-let-ring--------|
    E|-4-4-4-4-4-4-4-4-let-ring--------|


Refrain (Part three):

Rythm:  1   2   3   4  +  1   2   3   4
    e|------------------------------------|
    B|------------------------------------|
    G|--10----------------10------10------|
    D|--10--10--13--------10------10------| 2x
    A|--8---10--13--------8-------8--(8)--|
    E|------8---11(11)(13)----------------|


Rythm:  1   2   3   4  +  1   2   3   4
    e|------------------------------------|
    B|------------------------------------|
    G|--10----------------10------10------|
    D|--10--10--13--------10------10------|
    A|--8---10--13--------8-------8-------|
    E|------8---11------------------------|


Bridge 1:

Rythm: 1  +  2  +  3  +  4  +  1  +  2  +  3  +  4  +
    e|-------------------------------------------------|
    B|-------------------------------------------------|
    G|-10-10-10-10-8--8--8--8--10-10-10-10-10-10-10-10-|
    D|-10-10-10-10-8--8--8--8--10-10-10-10-10-10-10-10-| 1,5x
    A|-8--8--8--8--6--6--6--6--8--8--8--8--8--8--8--8--|
    E|-------------------------------------------------|


Main Riff

Refrain (all Parts)


Bridge 2:

Rythm: 1   2   3   4   1   2   3   4   1   2   3   4
    e|-------------------------------------------------|
    B|-------------------------------------------------|
    G|-------------------------------------------------|
    D|-12--------------12------12--11--7---------------|
    A|-10--------------10------10--9---5---------------|
    E|-10--------------10------10--9---5---------------|


Main Riff

Refrain (first and second Part)


End:

Rythm:  1   2   3   4   1
    e|------------------------|
    B|------------------------|
    G|--10--------------10----|
    D|--10--10--13------10----|
    A|--8---10--13------8-----|
    E|------8---11------------|
Tap to rate this tab
# A B C D E F G H I J K L M N O P Q R S T U V W X Y Z