Song name
# A B C D E F G H I J K L M N O P Q R S T U V W X Y Z

Love Among Freaks - Berserker tab

Tabbed by: Unknown
Email:bathing_in_lukewarm_water@yahoo.com

Tuning:Standard

Intro (And pretty much the whole song)
e|-------------------------------------------------|
B|-------------------------------------------------|
G|-------------------------------------------------|
D|--2-2-2-2-2-2-2-2/9--8----9\2-2-2-2-2-2-2-2/9--8-|
A|--2-2-2-2-2-2-2-2/9--8----9\2-2-2-2-2-2-2-2/9--8-|
E|--0-0-0-0-0-0-0-0/7--6----7\0-0-0-0-0-0-0-0/7--6-|

Here is the 2nd part:
e|-------------------------------------------------|
B|-------------------------------------------------|
G|-------------------------------------------------|
D|-2-2-2-2-2-2-2-2-5-5-5-5-5-5-5-5-7-7-7-7-7-7-7-7-|
A|-2-2-2-2-2-2-2-2-5-5-5-5-5-5-5-5-7-7-7-7-7-7-7-7-|
E|-0-0-0-0-0-0-0-0-3-3-3-3-3-3-3-3-5-5-5-5-5-5-5-5-|

e|-----------------|
B|-----------------|
G|-----------------|
D|-9-9-9-9-9-9-9-9-|
A|-9-9-9-9-9-9-9-9-|
E|-7-7-7-7-7-7-7-7-|

That's it.

Order

Intro
2nd Part
Intro
Tap to rate this tab
 
# A B C D E F G H I J K L M N O P Q R S T U V W X Y Z