Song name
# A B C D E F G H I J K L M N O P Q R S T U V W X Y Z

Love And Rockets - Sweet Lover Hangover tab

What a great band…I Love L&R
Suggestions or comments to: deathsonicmonkey@hotmail.com

Intro

   Riff A         F              Ab         Riff A 
E------------1--1--1--1--1--1--1--1--1--1-----------------||
B------------1--1--1--1--1--3--3--3--3--3-----------------||
G------------2--2--2--2--2--3--3--3--3--3-----------------||
D------------3--3--3--3--3--3--3--3--3—-3-----------------||
A-------1----3--3--3--3--3--1--1--1--1--1--------1--------||
E--0-1p3-----1--1--1--1--1--1--1--1--1--1---0-1p3---------||


Chorus:

             Sweeeeeet     lover of mine
E-----------0—-0--0--0--0—-0--0--0—-0--0-----------------||
B-----------1--1--1--1--1--6--6--6--6--6-----------------||
G-----------2--2--2--2--2--7--7--7--7--7-----------------||
D-----------3--3--3--3--3--8--8--8--8—-8-----------------||
A------1----3--3--3--3--3--8--8--8--8--8-----------------||
E-0-1p3-3---0--0--0--0--0--0--0--0--0--0-----------------||


            Sweeeeeet     lover of mine
E-----------0—-0--0--0--0—-0--0--0—-0--0-----------------||
B-----------1--1--1--1--1--6--6--6--6--6-----------------||
G-----------2--2--2--2--2--7--7--7--7--7-----------------||
D-----------3--3--3--3--3--8--8--8--8—-8-----------------||
A------1----3--3--3--3--3--8--8--8--8--8-----------------||
E-0-1p3-3---0--0--0--0--0--0--0--0--0--0-----------------||


          You Know a million tears are gonna fall 
E-----------0—-0--0--0--0—-0--0--0--0--0—-0--0-----------------||
B-----------1--1--1--1—-1--1--6--6--6--6--6--6-----------------||
G-----------2--2--2--2--2--2--7--7--7--7--7--7-----------------||
D-----------3--3--3--3--3--3--8--8--8--8--8—-8-----------------||
A------1----3--3--3--3--3--3--8--8--8--8--8--8-----------------||
E-0-1p3-3---0--0--0--0--0--0--0--0--0--0--0--0-----------------||


Distortion with Wah Pedal

			                  Harmonic Bridge
E-----------0—-------------0---------||----------8------------||
B-----------1--------------6---------||----------8------------||
G-----------2--------------7---------||----------9------------||
D-----------3--------------8---------||----------10-----------||
A-----------3--------------8---------||----------10-----------||
E-----------1--------------8---------||----------8------------||


  F                 Ab
Sister blue stay away from me
   F              Ab
Tears so many now I can't see
   F              Ab
Just waiting for the jerk to phone
   F             Ab
See you waiting by the telephone



    Distortion with Wah pedal                   
E----------------------------------------------------------------||
B-----9p6-6~--6---6--9p6-6--9p6-6~-6~----------------------------||
G--------------8-8-----------------------------------------------||
D-----------------------------------------------6-8-8-----6------||
A-----------------------------------------6~-6-8-----6~-8--------||
E-------------------------------------/15------------------------||


Get a feeling like a desert inside
I'm so thirsty for some peace of mind
You never know me 'cause I'm always alone
So hungry for that little girl


Chorus

    Distortion with Wah pedal                   
E----------------------------------------------------------------||
B-----9p6-6~--6---6--9p6-6--9p6-6~-6~----------------------------||
G--------------8-8-----------------------------------------------||
D-----------------------------------------------6-8-8-----6------||
A-----------------------------------------6~-6-8-----6~-8--------||
E-------------------------------------/15------------------------||

Lyrics

Sweet lover of mine
Sweet lover of mine
You know a million tears are gonna fall

Sister blue stay away from me
Tears so many now I can't see
Just waiting for the jerk to phone
See you waiting by the telephone

Sweet lover of mine
Sweet lover of mine
Sweet lover of mine
You know a million tears are gonna fall

Get a feeling like a desert inside
I'm so thirsty for some peace of mind
You never know me 'cause I'm always alone
So hungry for that little girl

Sweet lover of mine
Sweet lover of mine
Sweet lover of mine
You know a million tears are gonna fall

Sister blue stay away from me
Tears so many now I can't see
Just waiting for the jerk to phone
See you waiting by the telephone

Sweet lover of mine
Sweet lover of mine
Sweet lover of mine
You know a million tears are gonna fall
Tap to rate this tab
 
# A B C D E F G H I J K L M N O P Q R S T U V W X Y Z