Guitaretab - guitar tabs
Song name
# A B C D E F G H I J K L M N O P Q R S T U V W X Y Z

Love Apple - Letters tab

Band: Love apple
Song: Letters


mp3.com/loveapple

This is my second attemp tabbing this great song.


Lyrics:
I know things are getting better,
I'm tired, sick of writing letters,
I know its only the beginning,
I know this shit (verse?) is never ending, woooooooo

You wont see me when I'm trying,
And my feelings are diing,
Im so sick of seeing my heart dieiiiing dieeing dieiing

Verse:
E|---------------------|
B|---------------------|
G|---------------------|
D|-------3-3-------3-3-|
A|---1-1------0-0------|
E|---------------------|

end of verse: Bb5, A5 repeat

Chorus:

F5, C5, Bb5 (,A5,Bb5)

mini-solo-intro-thing:
[ Tab from: http://www.guitaretab.com/l/love-apple/40834.html ]
E|-----------------------6-5-------|
B|----2--1---1p3/5---6-------------|
G|---------------------------------|
D|---------------------------------|
A|---------------------------------|
E|---------------------------------|

...........

Old tab:

E|---------------------|
B|---------------------|
G|---------------------|
D|-------5-5-------5-5-|
A|---3-3------2-2------|
E|---------------------|


Chorus:

G5           E5             C5
You wont see me when I'm trying...

this is prob. my favorite love apple song.

Rock most on!

Btw, I'm the person who tried to tab "winnie cooper" too.






----------------------------------
"Hi mom!" - Sitinthecorner.com
Related for Letters tab