Song name
# A B C D E F G H I J K L M N O P Q R S T U V W X Y Z

Love Arcade - Keep It Comin tab

Intro
e|-------------------------------------------------------------|
b|-------------------------------------------------------------|
g|---------------66x66x66x666-88x88x88x888-44x44x44x444--------|
D|--44x44x44x444-66x66x66x666-88x88x88x888-44x44x44x444--------|     1x
A|--44x44x44x444-44x44x44x444-66x66x66x666-22x22x22x222--------|
E|--22x22x22x222-----------------------------------------------|

Vers
e|-------------------------------------------------------------------|
b|-------------------------------------------------------------------|
g|-------------------------------------------------------------------|
D|-------------------------------------------------------------------|     2x
A|-----------------44-44-44-44-44-66-66-66-66-66-22-22-22-22-22------|
E|--22-22-22-22-22---------------------------------------------------|
pm  .. .. .. .. .. .. .. .. .. .. .. .. .. .. .. .. .. .. .. ..


Chorus

e|-------------------------------------------------------------|
b|-------------------------------------------------------------|
g|---------------66x66x66x666-88x88x88x888-44x44x44x444--------|
D|--44x44x44x444-66x66x66x666-88x88x88x888-44x44x44x444--------|     2x
A|--44x44x44x444-44x44x44x444-66x66x66x666-22x22x22x222--------|
E|--22x22x22x222-----------------------------------------------|

Vers
e|-------------------------------------------------------------------|
b|-------------------------------------------------------------------|
g|-------------------------------------------------------------------|
D|-------------------------------------------------------------------|     2x
A|-----------------44-44-44-44-44-66-66-66-66-66-22-22-22-22-22------|
E|--22-22-22-22-22---------------------------------------------------|
pm  .. .. .. .. .. .. .. .. .. .. .. .. .. .. .. .. .. .. .. ..


Chorus

e|-------------------------------------------------------------|
b|-------------------------------------------------------------|
g|---------------66x66x66x666-88x88x88x888-44x44x44x444--------|
D|--44x44x44x444-66x66x66x666-88x88x88x888-44x44x44x444--------|     1x
A|--44x44x44x444-44x44x44x444-66x66x66x666-22x22x22x222--------|
E|--22x22x22x222-----------------------------------------------|

Interlude
e|--------------------------------------------------------------------------|
b|--------------------------------------------------------------------------|
g|--------------------44444444x44444444-------------------44444444x44444444-|
D|--44444444x44444444-44444444x44444444-44444444x44444444-44444444x44444444-|
A|--44444444x44444444-22222222x22222222-44444444x44444444-22222222x22222222-|
E|--22222222x22222222-------------------22222222x22222222-------------------|

 -----------------------------------------------------|
 -----------------------------------------------------|
 ---------------------------44x44x44x444-44x44x44x444-|
 -44x44x44x444-44x44x44x444-44x44x44x444-44x44x44x444-|
 -44x44x44x444-44x44x44x444-22x22x22x222-22x22x22x222-|
 -22x22x22x222-22x22x22x222---------------------------|

Chorus

e|-------------------------------------------------------------|
b|-------------------------------------------------------------|
g|---------------66x66x66x666-88x88x88x888-44x44x44x444--------|
D|--44x44x44x444-66x66x66x666-88x88x88x888-44x44x44x444--------|     2x
A|--44x44x44x444-44x44x44x444-66x66x66x666-22x22x22x222--------|
E|--22x22x22x222-----------------------------------------------|

Ending
e|--------------|
b|--------------|
g|--------------|
D|---4~~~~------|
A|---4~~~~------|
E|---2~~~~------|


tabbed by Julian P.
Tap to rate this tab
# A B C D E F G H I J K L M N O P Q R S T U V W X Y Z